>
 >
Try And Love Again

Try And Love Again Bass Tabs

Eagles - Try And Love Again chords, tabs, tablatures, lyrics

Guitar lessons | Add/correct | Request | Top 50 tabs Artists:  A B C D E F G H I J K L M N O P Q R S T U V W X Y Z 0-9

Try And Love Again Bass Tabs – Eagles

CD, Sheet music, Poster

Do you like Try And Love Again? Share with your friends now
Bass TabsChordsChords v2TabsTabs v2Ukulele
-----------------------------------------------------------------------------

                  Try and Love Again - The Eagles (BASS)
                       
-----------------------------------------------------------------------------

Tuning: Standard

=============================================================================

Bass



     W                                       W                 
G||-------------------|-------------------|-------------------|
D||-------------------|-------------------|--5----------------|
A||-------------------|-------------------|-------------------|
E||-------------------|-------------------|-------------------|


  W                   W                   W                   W               

  
-------------------|-------------------|-------------------|----------------|
--L----------------|-------------------|-------------------|----------------|
-------------------|--5----------------|--5----------------|----------------|
-------------------|-------------------|-------------------|--3-------------|


  W                   Q    E.  S E  E  E.  S    Q    E.  S E  E  E.  S  
-------------------|-------------------------|-------------------------|
-------------------|-------------------------|-------------------------|
-------------------|--5--------x-5--5------x-|--5--------x-5--5------x-|
--3----------------|-------------------------|-------------------------|


  Q    Q     E  E  E  E     Q    E.  S E  E  S S E     Q    Q    E  E  E.  S  
------------11--9--7--9--|-------4-----4------------|-----------------------|
--5----------------------|--5-------------5---------|-----------------------|
-------------------------|---------------------0-3--|--5---------5--5------x|
-------------------------|--------------------------|-----------------------|


  Q    E.  S E  E  Q       Q    Q    E  E  E.  S    Q    E.  S E  E  E  E   
------------------------|------------------------|-------------------------|
------------------------|------------------------|-------------------------|
--5--------x-5--5-------|------------------------|----------------0--2--5--|
------------------------|--3---------3--3------0-|--3--------0-3-----------|


  Q    Q    Q.     S S    E.  S E.  S H           Q    Q    Q.     S S  
-----------------------|-----------------------|-----------------------|
--5----4----2--------x-|--4---x-7---x----------|--5----4----2--------x-|
-----------------------|--------------5--------|-----------------------|
-----------------------|-----------------------|-----------------------|


  E.  S Q       Q.     E  Q    E.  S    Q    E.  S E  E  E.  S  
-------------|-----------------------|-------------------------|
--4---x-7----|---------5-------------|-------------------------|
-------------|--5---------5--------0-|--5--------x-5--5------x-|
-------------|-----------------------|-------------------------|


  Q    E.  S E  E  E.  S    Q    Q     E  E  E  E     Q    E.  S E  E  S S E  

 
-------------------------|------------11--9--7--9--|-------4-----4----------|
-------------------------|--5----------------------|--5-------------5-------|
--5--------x-5--5------x-|-------------------------|---------------------0-3|
-------------------------|-------------------------|------------------------|


  Q    Q    E  E  E.  S    Q    E.  S E  E  Q       Q    Q    E  E  E.  S  
------------------------|------------------------|------------------------|
------------------------|------------------------|------------------------|
--5---------5--5------x-|--5--------x-5--5-------|------------------------|
------------------------|------------------------|--3---------3--3------0-|


  Q    E.  S E  E  E  E     Q    Q    Q.     S S    E.  S E.  S H         
-------------------------|-----------------------|-----------------------|
-------------------------|--5----4----2--------x-|--4---x-7---x----------|
----------------0--2--5--|-----------------------|--------------5--------|
--3--------0-3-----------|-----------------------|-----------------------|


  Q    Q    Q.     S S    E.  S Q       Q    S S E  Q    Q     
-----------------------|-------------|------------------------|
--5----4----2--------x-|--4---x-7----|-----------5------------|
-----------------------|-------------|--5----L-5----5---------|
-----------------------|-------------|------------------------|


  Q    E.  S   E  Q      E     Q    E.  S   E  Q      E   
----------------------------|----------------------------|
----------------------------|----------------------------|
-------------5g7--5----7g5--|-------------5g7--5---------|
--3--------x----------------|--3--------x-----------7g5--|


  Q    E.  S   E  Q      E     Q    E.  S   E  Q      E   
----------------------------|----------------------------|
-------------7g9--7----9g7--|-------------7g9--7----9g7--|
--5--------5----------------|--5--------5----------------|
----------------------------|----------------------------|


  Q    E.  S   E  Q      E     Q    E.  S   E  E  S S E   
----------------------------|----------------------------|
----------------------------|----------------------------|
-------------5g7--5----7g5--|-------------5g7--5--5------|
--3--------x----------------|--3--------x-----------7-5--|


  Q    E.  S   E  Q      E     Q    E.  S   E  Q      E   
----------------------------|----------------------------|
-------------7g9--7----9g7--|-------------7g9--7----9g7--|
--5--------5----------------|--5--------5----------------|
----------------------------|----------------------------|


  Q    E.  S   E  Q      E     Q    E.  S   E  Q    E     H.           E.  S  
----------------------------|--------------------------|--------------------|
----------------------------|--------------------------|--------------------|
-------------5g7--5----7g5--|-----------0-5g7--5-------|--5----------------0|
--3--------x----------------|--3--------------------7--|--------------------|


  H.           E.  S    Q    E.  S E  Q      E     Q    E.  S E  Q    E   
---------------------|--------------------------|------------------------|
---------------------|--------------------------|------------------------|
--5------------------|-------------7--5----7g5--|-------------7--5-------|
-------------------0-|--3--------7--------------|--3--------7---------7--|


  Q    E.  S E  Q      E     Q    E.  S E  Q      E   
--------------------------|--------------------------|
-------------9--7----9g7--|-------------9--7----9g7--|
--5--------5--------------|--5--------5--------------|
--------------------------|--------------------------|


  Q    E.  S E  Q      E     Q    Q    S S S E  E.     H        E  E  Q     
--------------------------|-------------------------|----------------------|
--------------------------|-------------------------|----------------------|
-------------7--5----7g5--|-------------------------|--5-----------5-------|
--3--------7--------------|--3---------3---3-3------|----------------------|


  Q    Q    E  E  Q       Q    Q     E  E  E  E     Q    E.  S Q    S S S S  
-----------------------|------------11--9--7--9--|--------------------------|
-----------------------|--5----------------------|--5--------0-5------------|
--5---------5--5-------|-------------------------|--------------------0-2-4-|
-----------------------|-------------------------|--------------------------|


  H        E  Q.        H        E  E  Q       Q    Q    E  E  Q     
---------------------|----------------------|-----------------------|
---------------------|----------------------|-----------------------|
--5--------5--5------|--5--------5--5-------|-----------------------|
---------------------|----------------------|--3---------3--3-------|


  Q    E.  S E  E  E  E     Q    Q    Q.     S S    E.  S E.  S H         
-------------------------|-----------------------|-----------------------|
-------------------------|--5----4----2--------2-|--4---4-7---7----------|
----------------0--2--5--|-----------------------|--------------5--------|
--3--------0-3-----------|-----------------------|-----------------------|


  Q    Q    H           E.  S E.  S    Q    S S E  Q    Q     
---------------------|--------------|------------------------|
--5----4----2--------|--4---4-7---7-|-----------5------------|
---------------------|--------------|--5----L-5----5---------|
---------------------|--------------|------------------------|


  Q    E.  S   E  Q      E     Q    E.  S   E  Q    E   
----------------------------|--------------------------|
----------------------------|--------------------------|
-------------5g7--5----7g5--|-------------5g7--5-------|
--3--------x----------------|--3--------x-----------7--|


  Q    E.  S   E  Q      E     Q    E.  S   E  Q      E   
----------------------------|----------------------------|
-------------7g9--7----9g7--|-------------7g9--7---------|
--5--------5----------------|--5--------5-----------7g5--|
----------------------------|----------------------------|


  Q    E.  S   E  Q      E     Q    E.  S   E  Q    E   
----------------------------|--------------------------|
----------------------------|--------------------------|
-------------5g7--5----7g5--|-------------5g7--5-------|
--3--------x----------------|--3--------3-----------7--|


  Q    E.  S   E  Q      E     Q    E.  S   E  Q    S S  
----------------------------|---------------------------|
-------------7g9--7----9g7--|-------------7g9--7--------|
--5--------5----------------|--5--------5-----------7-5-|
----------------------------|---------------------------|


  Q    E.  S   E  Q      E     Q    Q      E  Q    S S  
----------------------------|--------------------------|
----------------------------|--------------------------|
-------------5g7--5----7g5--|--5---------5g7--5--------|
--3--------x----------------|----------------------5-7-|


  Q    E.  S   E  Q      E     Q    E.  S   Q    S S E   
----------------------------|---------------------------|
-------------7g9--7----9g7--|-------------7g9----7------|
--5--------5----------------|--5--------5----------9-7--|
----------------------------|---------------------------|


  Q    E.  S   E  Q      E     Q    E.  S   E  E  S S E   
----------------------------|----------------------------|
----------------------------|----------------------------|
-------------5g7--5----7g5--|-------------5g7--5--L------|
--3--------x----------------|--3--------x-----------7-5--|


  Q    E.  S   E  Q      E     Q    Q      S S S E  S E   
----------------------------|----------------7-7-7----7--|
-------------7g9--7---------|------------7g9--------9----|
--5----5---5-----------7g5--|--5-------------------------|
----------------------------|----------------------------|


  Q    E.  S   E  Q      E     Q    E.  S   E  E  S S E   
----------------------------|----------------------------|
----------------------------|----------------------------|
-------------5g7--5----7g5--|-------------5g7--5--L------|
--3--------x----------------|--3--------x-----------7-5--|


  Q    E.  S   E  Q      E     Q    E.  S S E  E  S E   
----------------------------|-------------7-7--7--5----|
-------------7g9--7---------|-----------5-----------7--|
--5----5---5-----------7g5--|--5-----------------------|
----------------------------|--------------------------|


  Q    E.  S   E  Q      E     Q    E.  S   E  E  S S E   
----------------------------|----------------------------|
----------------------------|----------------------------|
-------------5g7--5----7g5--|-------------5g7--5--L------|
--3--------x----------------|--3--------x-----------7-5--|


  Q    E.  S   E  E  E    E     Q    E.  S E  S   E  E  S  
-----------------------------|----------------------------|
-------------7g9--7--7--9g7--|-------------7----5g7--5----|
--5--------5-----------------|--5--------5----5-----------|
-----------------------------|----------------------------|


  Q    E.  S   E  Q      E     Q    E.  S   E  E  S S E   
----------------------------|----------------------------|
----------------------------|----------------------------|
-------------5g7--5----7g5--|-------------5g7--5--L------|
--3--------x----------------|--3--------x-----------7-5--|


  Q    E.  S   E  Q      E     Q    E.  S   E  E  S S E   
----------------------------|------------------7--7------|
-------------7g9--7----9g7--|-------------7g9-------9-7--|
--5--------5----------------|--5--------5----------------|
----------------------------|----------------------------|


  Q    E.  S   E  Q      E     Q    E.  S   E  E  S S E   
----------------------------|----------------------------|
----------------------------|----------------------------|
-------------5g7--5----7g5--|-------------5g7--5--L------|
--3--------x----------------|--3--------x-----------7-5--|


  Q    E.  S   E  E  E    E     Q    Q      S S S E  S E   
-----------------------------|----------------7-7-7-------|
-------------7g9--7-----9g7--|------------7g9--------9-7--|
--5--------5-----------------|--5-------------------------|
-----------------------------|----------------------------|


  Q    E.  S   E  Q      E     Q    E.  S   E  E  S S E   
----------------------------|----------------------------|
----------------------------|----------------------------|
-------------5g7--5----7g5--|-------------5g7--5--L------|
--3--------x----------------|--3--------x-----------7-5--|


  Q    E.  S   E  Q      E     Q    E.  S   E  Q      E    
----------------------------|----------------------------||
-------------7g9--7----9g7--|-------------7g9--7---------||
--5--------5----------------|--5--------5-----------5g7--||
----------------------------|----------------------------||




Duration Legend
---------------
W - whole
H - half
Q - quarter
E - 8th
S - 16th
T - 32nd
X - 64th
. - note dotted
|-n-|  - n-tuplets


Tablature Legend
----------------
L - tied note
x - dead note
g - grace note
(n) - ghost note
> - accentuded note
NH - natural harmonic
AH - artificial harmonic
TH - tapped harmonic
SH - semi harmonic
PH - pitch harmonic
h - hammer on
p - pull off
b - bend
br - bendRelease
pb - preBend
pbr - preBendRelease
brb - bendReleaseBend
\n/ - tremolo bar dip
\n - tremolo bar dive
-/n - tremolo bar Release up
/n\ - tremolo bar inverted dip
/n - tremolo bar return
-\n - tremolo bar Release down
S - shift slide
s - legato slide
/ -  slide into from below or out of upwards
\ -  slide into from above or out of downwards
~ - vibrato
W - wide vibrato
tr - trill
TP - tremolo picking
T - tapping
S - slap
P - pop
< - fade in
^ - brush up
v - brush down





Comments


Popular Eagles tabs & chords
Already Gone 2 Bass Tabs
Heartache Tonight 1 Bass Tabs
Desperado 3 Chords
Take It To The Limit 2 Chords
What Do I Do With My Heart 1 Chords
I Dreamed There Was No War Tabs
Lyin' Eyes 2 Tabs
Tequila Sunrise Tabs
Those Shoes Tabs
James Dean Ukulele


Song lyrics



↑ Back to top | Tablatures and chords are parodies/interpretations of the original songs. You may use it for private study, scholarship, research or language learning purposes only
© 2014 AZChords.com Contact us | Privacy policy | DMCA | Add/correct tabs | Request tabs | Top 50 tabs