» » »

Those Shoes Bass tabs (ver.2)

Artists:  A B C D E F G H I J K L M N O P Q R S T U V W X Y Z # 

Those Shoes Bass tabs (ver.2)

Eagles
Rating:
0/5 (0 votes)

Hard to play? Try these video lessons and learn fast.
                standard tuning

:00
G|--------------------------------------|
D|--------------------------------------|
A|--------------------------------------|
E|-0-0--0-0---0-0--0-0---0-0--0-0---0-0-|

:12 x2
G|-------------------------------------------|
D|-------------------------------------------|
A|-------------------------------------------|
E|-0-0--0-0---0-0--0-0---0-0--0-0---0-0--0-0-|

:37
G|-------------------------------------------|
D|-------------------------------------------|
A|-------------------------------------------|
E|-3-3--3-3---3-3--3-3---5-5--5-5---5-5--5-5-|

:49
G|------------------------------------------------------|
D|------------------------------------------------------|
A|-0-2---3-3--3-3---2-2--2--------------------------5h7-|
E|----------------------------0-0--0-0---0-0--0-0-------|

1:02 x2
G|-------------------------------------------|
D|-------------------------------------------|
A|-------------------------------------------|
E|-0-0--0-0---0-0--0-0---0-0--0-0---0-0--0-0-|

1:26
G|-------------------------------------------|
D|-------------------------------------------|
A|-------------------------------------------|
E|-3-3--3-3---3-3--3-3---5-5--5-5---5-5--5-5-|

1:38
G|---------------------------------------------------------|
D|---------------------------------------------------------|
A|-0-2---3-3--3-3---2-2--2---7/0-----------------------5h7-|
E|--------------------------------0-0--0-0---0-0--0-0------|

1:51 x2
G|-------------------------------------------|
D|-------------------------------------------|
A|-------------------------------------------|
E|-0-0--0-0---0-0--0-0---0-0--0-0---0-0--0-0-|

2:16
G|-------------------------------------------|
D|-------------------------------------------|
A|-------------------------------------------|
E|-3-3--3-3---3-3--3-3---5-5--5-5---5-5--5-5-|

2:28
G|------------------------------------------------------|
D|------------------------------------------------------|
A|-0-2---3-3--3-3---2-2--2--------------------------5h7-|
E|----------------------------0-0--0-0---0-0--0-0-------|

2:41 x2
G|-------------------------------------------|
D|-------------------------------------------|
A|-------------------------------------------|
E|-0-0--0-0---0-0--0-0---0-0--0-0---0-0--0-0-|

3:04
G|-------------------------------------------------|
D|-------------------------------------------------|
A|-------------------------------------------------|
E|-0-2---3-3--3-3---3-3--3-3---5-5--5-5---5-5--5-5-|

3:16
G|-----------------------------------------------------------|
D|-----------------------------------------------------------|
A|-0-2---3-3--3-3---2-2--2--2/7/0------------------------5h7-|
E|----------------------------------0-0--0-0---0-0--0-0------|

3:29 x2
G|-------------------------------------------|
D|-------------------------------------------|
A|-------------------------------------------|
E|-0-0--0-0---0-0--0-0---0-0--0-0---0-0--0-0-|

3:53
G|------------------------------------------------|
D|------------------------------------------------|
A|-7/0--------------------------------------------|
E|------3-3--3-3---3-3--3-3---5-5--5-5---5-5--5-5-|

4:05
G|------------------------------------------------|
D|------------------------------------------------|
A|-0-2---3-3--3-3---2-2--2------------------------|
E|----------------------------0-0--0-0---0-0--0-0-|

4:17
G|-----------------------------------------------------------|
D|-----------------------------------------------------------|
A|-0-2---3-3--3-3---2-2--2--2/7/0------------------------5h7-|
E|----------------------------------0-0--0-0---0-0--0-0------|

4:30
G|-------------------------------------------|
D|-------------------------------------------|
A|-------------------------------------------|
E|-0-0--0-0---0-0--0-0---0-0--0-0---0-0--0-0-|

4:42
G|--------------------------------------|
D|--------------------------------------|
A|--------------------------------------|
E|-0-0--0-0---0-0--0-0---0-0--0-0---0-0-|
            
Hard to play? Try these video lessons and learn fast. | Correct




comments powered by Disqus
↑ Back to top | Tablatures and chords are parodies/interpretations of the original songs. You may use it for private study, scholarship, research or language learning purposes only