» » »

Take The Devil Tabs (ver.1)

Artists:  A B C D E F G H I J K L M N O P Q R S T U V W X Y Z # 

Take The Devil Tabs (ver.1)

Eagles
Rating:
0/5 (0 votes)

Hard to play? Try these video lessons and learn fast.
                                                 EAGLES
                             TAKE THE DEVIL


standard tuning
EADGBe


intro acoustic
---------------------------------------------------------------------------|
--2------2-2-2-2-2--2------2-2-2-2-2--2------2-2-2-2-2--2------2-2-2-2-2---|
---2-----2-2-2-2-2---2-----2-2-2-2-2---2-----2-2-2-2-2---2-----2-2-2-2-2---|
----4----4-4-4-4-4----4----4-4-4-4-4----4----4-4-4-4-4----4----4-4-4-4-4---|
-----4-----------------4-----------------4-----------------4---------------|
------2-----------------2-----------------2-----------------2--------------|


--------------------------------------------------------------------------|
--2-----2-2-2-2-2---------------------------------------------------------|
---2----2-2-2-2-2--8-8-8-8-8-8-8-8--11-11-11-11-11-11-11-11--11-11-11-11--|
----4---4-4-4-4-4--9-9-9-9-9-9-9-9--12-12-12-12-12-12-12-12--11-11-11-11--|
-----4-------------9-9-9-9-9-9-9-9--12-12-12-12-12-12-12-12--11-11-11-11--|
------2------------7-7-7-7-7-7-7-7--10-10-10-10-10-10-10-10---9--9--9--9--|

------------------------|
------------------------|
-8-8-8-8----------------|
-9-9-9-9--4-4-4-4-4-4---|
-9-9-9-9--4-4-4-4-4-4---|
-7-7-7-7--2-2-2-2-2-2---|

Open up your eyes
Take the devil from your mind
He’s been holding on to you
And you’re so hard to find

electric
-----------|
-----------|
-----------|
-----------|
-----4-----|
-----2-----|


The wind outside is cold
Restless feeling in my soul
Tempting me to get away
But there’s no place a man can go

-----------|
-----------|
-----------|
-----------|
-----4-----|
-----2-----|


chorus
-------------------------------------|
-------------------------------------|
---7-7-7-7--------7-7-7-7------------|
---7-7-7-7--------7-7-7-7--4---------|
---5-5-5-5--4-----5-5-5-5--2---------|
------------2------------------------|
God, will you lead me where I roam?
Help me not to let my feelings show
No, no

solo
---------------------------------------------------------------------------|
----------------------------------------7----------------------------------|
------------------------------------------9-6------------------------------|
-----------7----------7-9-9b-9br-7------------9-7--------------------------|
-------7-9---9-7-9-----------------9--------------9-7----------------------|
---7-9------------------------------------------------9-7-5-5-5-0-0-0h2----|
            
Hard to play? Try these video lessons and learn fast. | Correct




comments powered by Disqus
↑ Back to top | Tablatures and chords are parodies/interpretations of the original songs. You may use it for private study, scholarship, research or language learning purposes only