» » »

Eagles, One Of These Nights Tabs (ver.3)

Artists:  A B C D E F G H I J K L M N O P Q R S T U V W X Y Z # 

One Of These Nights Tabs (ver.3)

Eagles Tabs
 Rating:
4/5 (4 votes)
One Of These Nights lessons Tabs too difficult? Try these video lessons and learn fast
                _____________________________________________________________________________

                             One Of These Nights
                                 The Eagles
____________________________________________________________________________


                                     (one or the other)

Tablature Legend
__________________
b=bend
pb=pre-bend
p=pull-off
/=slide up
\=slide down
~~~~=vibrato

E-20b22--20b22~~~~---15---------------------------------------------|
B------------------------17---17p15---------------------------------|
G---------------------------------------16--14--12/14--12-----------|
D-----------------------------------------------------------14------|
A-------------------------------------------------------------------|
E-------------------------------------------------------------------|

E-------------------------------15b17--15---------------------------|
B-------------------------------------------------------------------|
G------------------------------------------14b16--14p12----12-14b16-|
D-14p12-------------------------------------------------14----------|
A--------14-12-10--13p12p10--/\-------------------------------------|
E-------------------------------------------------------------------|

E--15---------------------------------------------19pb17--------|
B---------------------------------------------------------20b22-|
G-----14b16--14p12----12--------17----17--15--------------------|
D------------------14-----14/16----16---------------------------|
A---------------------------------------------------------------|
E---------------------------------------------------------------|

E---------------------------------0--10-------------------|
B-8-8-8-8-8-----/3-------3--5-3b5-------8-----------------|
G-7-7-7-7-7-----/2---2/4------------------9-7-------------|
D----------------------------------------------9p7p5--7-5-|
A---------------------------------------------------------|
E---------------------------------------------------------|

E------------------------------------------------------|
B--------------------------------------------------5-5-|
G---------7/9~~~~--4b5r4--0-2-0-------4b5r4--0-2-0-----|
D-------------------------------2-2--------------------|
A-7-5/7------------------------------------------------|
E------------------------------------------------------|


E-15-15--------------------------17pb15-12--17b19--17b19~~~~--|
B------------------15-17pb15-12-------------------------------|
G-------14b16--12---------------------------------------------|
D-------------------------------------------------------------|
A-------------------------------------------------------------|
E-------------------------------------------------------------|
            
Submit corrections

comments powered by Disqus
↑ Back to top | Eagles Tabs for One Of These Nights. Lyrics for acoustic guitar and electric guitar. Tablatures and chords are parodies/interpretations of the original songs. You may use it for private study, scholarship, research or language learning purposes only