» » »

A New Kid In Town Tabs (ver.2)

Artists:  A B C D E F G H I J K L M N O P Q R S T U V W X Y Z # 

A New Kid In Town Tabs (ver.2)

Eagles
Rating:
0/5 (0 votes)

Hard to play? Try these video lessons and learn fast.
                NEW KID IN TOWN - EAGLES
LEGEND:
| /  slide up
| \  slide down
| ~  vibrato
| +  harmonic
| r  release bend

Tuning: standard
INTRO:
            E                        B7
e|---------------------------------------------------------------|
B|------7—--7/9—-7/9-----------------------7-----7---------------|
G|----9-----9----9-------------------------6/8—--6/8-------------|
D|--9-------9----9----------------------9------------------------|
A|---------------------------------------------------------------|
E|---------------------------------------------------------------|

    A        Asus2             B7                     E
e|------------------------12---12\9--9--7—-7\5--5-----0------12+-|
B|------------------------12---12\9--9--7—-7\5--5-----0---12+----|
G|--14\11—-11\9--9--6--6---------------------------6-------------|
D|--14\11—-11\9--9--7--7-----------------------------------------|
A|---------------------------------------------------------------|
E|---------------------------------------------------------------|

VERSE 1:
   E                                           B7
e|-0-------------------------------------------2-----------------|
B|-0-------------------------------------------0-----------------|
G|-1-------------------------------------------2-----------------|
D|-2-------------------------------------------1-----------------|
A|-2-------------------------------------------2-----------------|
E|-0-------------------------------------------------------------|
   THERE’S TALK ON THE STREET IT SOUNDS SO FAMILIAR

   Asus2         B7                  E               Esus4
e|-0-------------2-------------------0---------------0-----------|
B|-0-------------0-------------------0---------------0-----------|
G|-2-------------2-------------------1---------------2-----------|
D|-2-------------1-------------------2---------------2-----------|
A|-0-------------2-------------------2---------------2-----------|
E|-----------------------------------0---------------0-----------|
    GREAT EXPECTATIONS EVERYBODY’S WATCHIN YOU

   E                                       B7
e|-0---------------------------------------2---------------------|
B|-0---------------------------------------0---------------------|
G|-1---------------------------------------2---------------------|
D|-2---------------------------------------1---------------------|
A|-2---------------------------------------2---------------------|
E|-0-------------------------------------------------------------|
      PEOPLE YOU MEET THEY ALL SEEM TO KNOW YOU

   A  Asus2     A      B7                           E
e|-0---0--------0-------2------------------------------------0---|
B|-2---0--------2-------0---------------------------------0------|
G|-2---2--------2-------2------------------------------1---------|
D|-2---2--------2-------1---------------------------2------------|
A|-0---0--------0-------2----------------------------------------|
E|---------------------------------------------------------------|
       EVEN YOUR OLD FRIENDS TREAT YOU LIKE YOU’RE SOMETHING NEW

  F#m7/C#      G#sus4      G#
e|----------0-----------4--4-------------------------------------|
B|-------0-----------4-----4-------------------------------------|
G|----2-----------6--------5-------------------------------------|
D|-4-----------6-----------6-------------------------------------|
A|---------------------------------------------------------------|
E|---------------------------------------------------------------|


CHORUS:

   C#m              F#              C#m                 F#
e|--4---------------2----------------4------------------2--------|
B|--5---------------2----------------5------------------2--------|
G|--6---------------3----------------6------------------3--------|
D|--6---------------4----------------6------------------4--------|
A|--4---------------4----------------4------------------4--------|
E|------------------2-----------------------------------2--------|
    JOHNNY COME LATELY,                THE NEW KID IN TOWN

  C#m            F#             F#m7                    B7
e|--4-------------2--------------2-----------------------2-------|
B|--5-------------2--------------2-----------------------0-------|
G|--6-------------3--------------2-----------------------2-------|
D|--6-------------4--------------2-----------------------1-------|
A|--4-------------4--------------4-----------------------2-------|
E|----------------2--------------2-------------------------------|
     EVERYBODY LOVES YOU               SO DON’T LET THEM DOWN

VERSE 2:

  E pause                         F#M7    B7      A  F#m7
e|-0-------------------------------------2-------2-------0----2--|
B|-0-------------------------------------2-------0-------2----2--|
G|-1-------------------------------------2-------2-------2----2--|
D|-2-------------------------------------2-------1-------2----2--|
A|-2-------------------------------------4-------2-------0----4--|
E|-0-------------------------------------2--------------------2--|
      YOU LOOK IN HER EYES THE MUSIC BEGINS TO PLAY

   A  Asus2  A     B7               E
e|-0---0-----0-----2--------------0----4-4-4---------------------|
B|-2---0-----2-----0--------------0-----------7---5-5-5-4---2--0-|
G|-2---2-----2-----2--------------1----4-4-4---------------------|
D|-2---2-----2-----1--------------2-----------7---6-6-6-4---2--2-|
A|-0---0-----0-----2--------------2------------------------------|
E|--------------------------------0------------------------------|
    HOPELESS ROMANTICS HERE WE GO AGAIN

   E                                    F#m7  B7        F#m7
e|-0-------------------------------------2-----2---------2-------|
B|-0-------------------------------------2-----0---------2-------|
G|-1-------------------------------------2-----2---------2-------|
D|-2-------------------------------------2-----1---------2-------|
A|-2-------------------------------------4-----2---------4-------|
E|-0-------------------------------------2---------------2-------|
     BUT AFTER AWHILE YOU’RE LOOKIN THE OTHER WAY

   B7            A       B7               E          F#m7/C# 
e|-2-------------0--------2------------------------0-----------0-|
B|-0-------------2--------0---------------------0-----------0----|
G|-2-------------2--------2------------------1-----------2-------|
D|-1-------------2--------1---------------2-----------4----------|
A|-2-------------0--------2--------------------------------------|
E|---------------------------------------------------------------|
     ITS THOSE RESTLESS HEARTS THAT NEVER MEND

   G#sus4        G#
e|-----------4---4-----------------------------------------------|
B|--------4------4-----------------------------------------------|
G|-----6---------5-----------------------------------------------|
D|--6------------6-----------------------------------------------|
A|---------------------------------------------------------------|
E|---------------------------------------------------------------|
                      OH!_____

CHORUS:

   C#m              F#              C#m                 F#
e|--4---------------2----------------4------------------2--------|
B|--5---------------2----------------5------------------2--------|
G|--6---------------3----------------6------------------3--------|
D|--6---------------4----------------6------------------4--------|
A|--4---------------4----------------4------------------4--------|
E|------------------2-----------------------------------2--------|
    JOHNNY COME LATELY,                THE NEW KID IN TOWN

  C#m            F#             F#m7                    B7
e|--4-------------2--------------2-----------------------2-------|
B|--5-------------2--------------2-----------------------0-------|
G|--6-------------3--------------2-----------------------2-------|
D|--6-------------4--------------2-----------------------1-------|
A|--4-------------4--------------4-----------------------2-------|
E|----------------2--------------2-------------------------------|
    WILL SHE STILL LOVE YOU         WHEN YOU’RE NOT AROUND

ADLIB:
   E                                        B7
e|---------0---------0-----------0-------------------------------|
B|---------0---------0-----------0-----------0---------0---------|
G|---1----/4---4/9---9---9/13---13---13-----11------9--8---------|
D|---2----/6---6/9---9---9/14---14---14-----13-----11--9---------|
A|---------------------------------------------------------------|
E|---------------------------------------------------------------|

e|------------------------12—12--12\9----------------12----------|
B|-------------------------------------12^^~~--12^^r-----10------|
G|---4---6---6\2---2-----------------------------------------11--|
D|---4---6---4\2---1---------------------------------------------|
A|---------------------------------------------------------------|
E|---------------------------------------------------------------|


e|-------12—14^^-------19^^r---17\16--17--16---------------------|
B|--12^^--------------------------------------19--17--16~~~~~~---|
G|---------------------------------------------------------------|
D|---------------------------------------------------------------|
A|---------------------------------------------------------------|
E|---------------------------------------------------------------|

   B7                                       E
e|--2---------------------------------------0--------------------|
B|--0---------------------------------------0--------------------|
G|--2---------------------------------------1--------------------|
D|--1---------------------------------------2--------------------|
A|--2---------------------------------------2--------------------|
E|------------------------------------------0--------------------|
     THERE’S SO MANY THINGS YOU SHOULD HAVE TOLD HER
   B7                                       C#m
e|--2----------------------------------------4-------------------|
B|--0----------------------------------------5-------------------|
G|--2----------------------------------------6-------------------|
D|--1----------------------------------------6-------------------|
A|--2----------------------------------------4-------------------|
E|---------------------------------------------------------------|
    BUT NIGHT AFTER NIGHT YOU’RE WILLING TO HOLD HER

           F#        Am7           C/D    D7
e|----------2---------0-------------0------2---------------------|
B|----------2---------1-------------1------1---------------------|
G|----------3---------0-------------0------2---------------------|
D|----------4---------2-------------0------0---------------------|
A|----------4---------0------------------------------------------|
E|----------2----------------------------------------------------|
      JUST HOLD HER, TEARS ON YOUR SHOUL__DER

VERSE 3:
   G                                     Am7   D
e|--3-------------------------------------------0-----2----------|
B|--0-------------------------------------------1-----3----------|
G|--0-------------------------------------------0-----2----------|
D|--0-------------------------------------------2-----0----------|
A|--2-------------------------------------------0----------------|
E|--3------------------------------------------------------------|
    THERE’S TALK ON THE STREET IT’S THERE TO REMIND YOU

   Am7   D    C                        D           G 
e|--0----2----0------------------------2-----------3-------------|
B|--1----3----1------------------------3-----------0-------------|
G|--0----2----0------------------------2-----------0-------------|
D|--2----0----2------------------------0-----------0-------------|
A|--0---------3------------------------------------2-------------|
E|-------------------------------------------------3-------------|
                  IT DOESN’T REALLY MATTER WHICH SIDE YOU’RE ON

    G                                        Am7   D 
e|--3-----------------------------------------0----2-------------|
B|--0-----------------------------------------1----3-------------|
G|--0-----------------------------------------0----2-------------|
D|--0-----------------------------------------2----0-------------|
A|--2-----------------------------------------0------------------|
E|--3------------------------------------------------------------|
    YOU’RE WALKIN AWAY AND THEY’RE TALKING BEHIND YOU

                C                     D                G     B7
e|--------------0---------------------2----------------3------2--|
B|--------------1---------------------3----------------0------0--|
G|--------------0---------------------2----------------0------2--|
D|--------------2---------------------0----------------0------1--|
A|--------------3--------------------------------------2------2--|
E|-----------------------------------------------------3---------|
     THEY WILL NEVER FORGET YOU TIL SOMEBODY NEW COMES ALONG

          Em7                  A7    Em7                     A7
e|---------0--------------------0-----0-----------------------0--|
B|---------3--------------------2-----3-----------------------2--|
G|---------0--------------------0-----0-----------------------0--|
D|---------2--------------------2-----2-----------------------2--|
A|---------2--------------------0-----2-----------------------0--|
E|--3-2-0--0--------------------------0--------------------------|
               WHERE YOU BEEN LATELY?   THERE’S A NEW KID IN TOWN
   Em7                  A7                    Am7 
e|--0--------------------0---------------------0-----------------|
B|--3--------------------2---------------------1-----------------|
G|--0--------------------0---------------------0-----------------|
D|--2--------------------2---------------------2-----------------|
A|--2--------------------0---------------------0-----------------|
E|--0------------------------------------------------------------|
             EVERYBODY LOVES HIM,  DON’T THEY?
  Am7                   B7                     E         
e|--0--------------------2---------------------0-----------------|
B|--1--------------------0---------------------0-----------------|
G|--0--------------------2---------------------1-----------------|
D|--2--------------------1---------------------2-----------------|
A|--0--------------------2---------------------2-----------------|
E|---------------------------------------------0-----------------|
         AND HIS HOLDIN HER AND YOU’RE STILL AROUND
            
Hard to play? Try these video lessons and learn fast. | Correct




comments powered by Disqus
↑ Back to top | Tablatures and chords are parodies/interpretations of the original songs. You may use it for private study, scholarship, research or language learning purposes only