>
 >
Hotel California

Hotel California Bass Tabs

Eagles - Hotel California chords, tabs, tablatures, lyrics

Guitar lessons | Add/correct | Request | Top 50 tabs Artists:  A B C D E F G H I J K L M N O P Q R S T U V W X Y Z 0-9

Hotel California Bass Tabs – Eagles

CD, Sheet music, Poster

Do you like Hotel California? Share with your friends now
Bass TabsBass Tabs v2Bass Tabs v3ChordsChords v2Chords v3Chords v4Chords v5Chords v6Chords v7Chords v8Chords v9Drum TabsTabsTabs v2Tabs v10Tabs v11Tabs v12Tabs v3Tabs v4Tabs v5Tabs v6Tabs v7Tabs v8Tabs v9UkuleleUkulele v2
[Bass Tabulature]
[WEA]
Music and Lyrics by : Don Felder, Glen Frey & Don Henley

Thanks to the French magazine "Guitar Part" and thanks to my ears,
I wrote this tab which is actually MY version -as I play it-.
	Fabien HADDADI, November 1995

(I didn't bother myself with the time...Listen to the C.D !) :-)

Symbols :  g : ghost
	  2/5: slide from 2 up 5
           \ : slide down to... from nowhere
	   b : bend 
        (lr) : let ring		 
beat=72

INTRO (play 2 times)

G  ||----------------|----------------|----------------|----------------|
D 4||----------------|----------------|----------------|----------------|
A 4||----------------|9---------------|----------------|7---------------|
E  ||7---------------|----------------|5---------------|----------------|

    |----------------|----------------|----------------|----------------||
    |----------------|----------------|----------------|----------------||
    |----------------|5---------------|----------------|----------------||	
    |3---------------|----------------|0---------------|2---------------||
								drum + +
(play two verses)
VERSES

   ||--------------------------------|--------------------------------|
   ||------9---------9g9--------g4---|------4---------4---------------|
   ||----9---------9-----9---------0-|----4---------4--g4-------------|
   ||7-7-----------------------------|2-2-----------------2-----------|
drum +       +       +       +        +       +       +       +             	
    |--------------------------------|--------------------------------|
    |------7---------7g7-------------|------2---------2---------------|
    |----7---------7-----7------g5-0-|----2---------2--g2-------------|
    |5-5-----------------------------|0-0-----------------0-----------|

    |--------------------------------|------7---------7---------------|
    |------5---------5g5-------------|----7---------7--g7-0-----------|
    |----5---------5-----5------g5-0-|5-5------------------------g2-0-|
    |3-3-----------------------------|--------------------------------|

				     >first time		      second time               
    |--------------------------------||
    |------4---------4---------0-2-4-||
    |2-2-4---------4---------4-------||
    |--------------------------------||

CHORUS I (two times)

   ||----------------------------2/--|7---------------7-------7-------|
   ||5---------------5-------5-------|--7-----------7-------7-----7\--|
   ||-5------------5-------5---------|----5---------------------------|
   ||---3----------------------------|--------------------------------|

    >first time                                                       second time
    |--------------------------------|--------------------------------||
    |2---------------2-------2-------|----4-----------4-------4-------||
    |--2-----------2-------2-----2---|--4-----------4-------4---------||
    |----0---------------------------|2-------------------------------||

(play 2 verses)

CHORUS II (two times)

   ||----------------------------2/--|7---------------7-------7-------|
   ||5---------------5-------5-------|--7-----------7-------7-----7\--|
   ||-5------------5-------5---------|----5---------------------------|
   ||---3----------------------------|--------------------------------|

    >first time                                                       second time
    |--------------------------------|--------------------------------||
    |2---------------2-------2-------|4-------------------------------||
    |--2-----------2-------2-----2---|--------------------------------||
    |----0---------------------------|--------------------------------||


CODA I
	
  ||----------------|----------------|----------------|----------------|
  ||----------------|----------------|----------------|----------------|
  ||----------------|9---------------|----------------|7---------------|
  ||7---------------|----------------|5---------------|----------------|

   |----------------|----------------|----------------|----------------|
   |----------------|----------------|----------------|----------------|
   |----------------|5---------------|----------------|----------------|	
   |3---------------|----------------|0---------------|2---------------|


    |--------------------------------|--------------------------------|
    |------9---------9g9--------g4---|------4---------4---------------|
    |----9---------9-----9---------0-|----4---------4--g4-------------|
    |7-7-----------------------------|2-2-----------------2-------10--|

    |--------------------------------|--------------------------------|
    |------7---------7g7-------------|------2---------2---------------|
    |----7---------7-----7------g5-0-|----2---------2--g2-------------|
    |5-5-----------------------------|0-0-----------------0-----------|

    |--------------------------------|------7---------7---------------|
    |------5---------5g5-------------|----7---------7--g7-0-----------|
    |----5---------5-----5------g5-0-|5-5------------------------g2-0-|
    |3-3-----------------------------|--------------------------------|

    |--------------------------------|--------------------------------||
    |------2---------2g2-------------|------4---------4-2-4-----------||
    |----2---------2-----2------g2-0-|2-2-4---------4-----------------||
    |0-0-----------------------------|-----------------------\--------||

CODA II (While guitar solo plays)

(play two times)
   ||--------------------------------|--------------------------------|
   ||------9---------9g9--------g4---|------4---------4---------------|
   ||----9---------9-----9---------0-|----4---------4--g4-------------|
   ||7-7-----------------------------|2-2-----------------2---10\-----|

    |--------------------------------|--------------------------------|
    |------7---------7g7-------------|------2---------2---------------|
    |----7---------7-----7------g5-0-|----2---------2--g2-------------|
    |5-5-----------------------------|0-0-----------------0---8\5\----|


    |--------------------------------|------7---------7---------------|
    |------5---------5g5-------------|----7---------7--g7-0-----------|
    |----5---------5-----5------g5-0-|5-5-----------------------------|
    |3-3-----------------------------|------------------------5\------|

				     >first time		      second time               
    |--------------------------------||
    |------4---------4-------4---2/--||
    |2-2-4---------4-------4---------||
    |--------------------------------||

   ||--------------------------------|--------------------------------|
   ||9-9(lr)---------9---9-----------|------4-------------4---4\------|
   ||--------------9---9---------9\--|----4-----4-------4--g4---------|
   ||--------7-----------------------|2-2---------2-------------------|

    |--------------------------------|--------------------------------|
    |------7-------------7---7-------|--------------------------------|
    |----7-------------7---7---7\----|------7-----------7-5---7\------|
    |5-5-------5---------------------|0-0-7-----------------7-7\------|

    |--------------------------------|------7---------7---------------|
    |------5---------5g5-------------|----7---------7--g7-0-----------|
    |----5---------5-----5------g5-0-|5-5---------------------5\------|
    |3-3-----------------------------|--------------------------------|

    |--------------------------------|--------------------------------|
    |------2---------2g2-------------|------4---------4-------4-------|
    |----2---------2-----2------g2-0-|2-2-4---------4-------4---------|
    |0-0-----------------------------|----------------------------2/--|


    |--------------------------------|--------------------------------|
    |--------------------------------|--------------------------------|
    |--------------------------------|9-9-9-9-9-9-9-9-9-9-9-9-9---9---|
    |7-7-7-7-7-7-7-7-7-7-7-7-7---7---|--------------------------------|
			     >   >			      >   >
    |--------------------------------|--------------------------------|
    |--------------------------------|--------------------------------|
    |--------------------------------|7-7-7-7-7-7-7-7-7-7-7-7-7---7---|
    |5-5-5-5-5-5-5-5-5-5-5-5-5---5---|--------------------------------|
			     >   >			      >   >
    |--------------------------------|--------------------------------|
    |5-5-5-5-5-5-5-5-5-5-5-5-5---5---|--------------------------------|
    |--------------------------------|5-5-5-5-5-5-5-5-5-5-5-5-5---5---|
    |--------------------------------|--------------------------------|
			     >   >			      >   >
    |--------------------------------|--------------------------------|
    |2-2-2-2-2-2-2-2-2-2-2-2-2---2---|4-4-4-4-4-4-4-4-4-4-4-4-4---4---|
    |--------------------------------|--------------------------------|
    |0-0-0-0-0-0-0-0-0-0-0-0-0---0---|2-2-2-2-2-2-2-2-2-2-2-2-2---2---|
			     >   >			      >   >
    (play one time then repeat while fading...)

    |--------------------------------|--------------------------------|
    |------9---------9g9--------g4---|------4---------4---------------|
    |----9---------9-----9---------0-|----4---------4--g4-------------|
    |7-7-----------------------------|2-2-----------------2---10\-----|

    |--------------------------------|--------------------------------|
    |------7---------7g7-------------|------2---------2---------------|
    |----7---------7-----7------g5-0-|----2---------2--g2-------------|
    |5-5-----------------------------|0-0-----------------0---8\------|


    |--------------------------------|------7---------7---------------|
    |------5---------5g5-------------|----7---------7--g7-0-----------|
    |----5---------5-----5------g5-0-|5-5-----------------------------|
    |3-3-----------------------------|------------------------5\------|

    |--------------------------------|--------------------------------||
    |------2---------2g2-------------|------4---------4-------4-------||
    |----2---------2-----2------g2-0-|2-2-4---------4-------4---------||
    |0-0-----------------------------|--------------------------------||
							(FADING...)





Comments


Popular Eagles tabs & chords
I Cant Tell You Why Bass Tabs
Lyin Eyes 4 Bass Tabs
Out Of Control 1 Bass Tabs
After The Thrill Is Gone 2 Chords
Hotel California Live 2 Tabs
Hotel California Live 5 Tabs
Peaceful Easy Fealing Tabs
I Cant Tell You Why Ukulele
The Last Resort Ukulele
Wasted Time Ukulele


Song lyrics



↑ Back to top | Tablatures and chords are parodies/interpretations of the original songs. You may use it for private study, scholarship, research or language learning purposes only
© 2014 AZChords.com Contact us | Privacy policy | DMCA | Add/correct tabs | Request tabs | Top 50 tabs