» » »

Eagles, Already Gone Bass tabs (ver.2)

Artists:  A B C D E F G H I J K L M N O P Q R S T U V W X Y Z # 

Already Gone Bass tabs (ver.2)

Eagles Tabs
 Rating:
4/5 (4 votes)
Already Gone lessons Tabs too difficult? Try these video lessons and learn fast
1
                -------------------------------------------------------------------------------
                             Eagles - Already Gone
-------------------------------------------------------------------------------


 ( Intro )
   
G|-----------------------|-----------------------|
D|-------------------235-|-------------------235-|
A|-------5-----3---------|------5-----3----------|
E|-3---------------------|3----------------------|

  Well I heard some people talking
G|----------------------------------------------------------------|
D|-----------------------235--------------------------------------|
A|-----5--5-5----3-3-------------5--5-5----3-3---3-3-------5--5-5-|
E|-3-3--------5------3-3-----3-3--------5------3-----3-3-3--------|

   Soon find out it's true
G|-------------------------------------------|
D|-----------235-----------------------------|
A|---3-3-------------5--5-5----3-3-----------|
E|5------3-3-----3-3--------5------3-3-0-1-2-|


  Cause I'm already gone
G|----------|----------|---------|---------|---------|---------|---------|---------|
D|----------|---4-7-54-|--2-5-32-|--2-5-32-|---------|--4-7-54-|--2-5-32-|--2-5-32-|
A|---2-5-32-|-5--------|3--------|3--------|--2-5-32-|5--------|3--------|3--------|
E|-3--------|----------|---------|---------|3--------|---------|---------|---------|

  I will sing
G|----------|----------|---------|---------|---------|---------|---------|---------|
D|----------|---4-7-54-|--2-5-32-|--2-5-32-|---------|--4-7-54-|--2-5-32-|--2-5-32-|
A|---2-5-32-|-5--------|3--------|3--------|--2-5-32-|5--------|3--------|3--------|
E|-3--------|----------|---------|---------|3--------|---------|---------|---------|

 
 The letter that you wrote me
G|-----------------------------------------------------------------|
D|-----------------------235-----------------------235-------------|
A|-----5--5-5----3-3-------------5--5-5----3-3--------------5--5-5-|
E|-3-3--------5------3-3-----3-3--------5------3-3-----3-3---------|

     When you look up in the sky
G|-------------------------------------------|
D|-----------235-----------------------------|
A|---3-3-------------5--5-5----3-3-----------|
E|5------3-3-----3-3--------5------3-3-0-1-2-|


    Cause I'm already gone
G|----------|----------|---------|---------|---------|---------|---------|---------|
D|----------|---4-7-54-|--2-5-32-|--2-5-32-|---------|--4-7-54-|--2-5-32-|--2-5-32-|
A|---2-5-32-|-5--------|3--------|3--------|--2-5-32-|5--------|3--------|3--------|
E|-3--------|----------|---------|---------|3--------|---------|---------|---------|

  I will sing
G|----------|----------|---------|---------|---------|---------|---------|---------|
D|----------|---4-7-54-|--2-5-32-|--2-5-32-|---------|--4-7-54-|--2-5-32-|--2-5-32-|
A|---2-5-32-|-5--------|3--------|3--------|--2-5-32-|5--------|3--------|3--------|
E|-3--------|----------|---------|---------|3--------|---------|---------|---------|


 ( Interlude )

G|----------|----------|---------|---------|---------|---------|---------|---------|
D|----------|---4-7-54-|--2-5-32-|--2-5-32-|---------|--4-7-54-|--2-5-32-|--2-5-32-|
A|---2-5-32-|-5--------|3--------|3--------|--2-5-32-|5--------|3--------|3--------|
E|-3--------|----------|---------|---------|3--------|---------|---------|---------|

 ( interlude )  

G|----------|----------|---------|---------|---------|---------|---------|---------|
D|----------|---4-7-54-|--2-5-32-|--2-5-32-|---------|--4-7-54-|--2-5-32-|--2-5-32-|
A|---2-5-32-|-5--------|3--------|3--------|--2-5-32-|5--------|3--------|3--------|
E|-3--------|----------|---------|---------|3--------|---------|---------|---------|


 Well I knew it wasn't you
G|----------------------------------------------------------------|
D|-----------------------235-----------------------235------------|
A|-----5--5-5----3-3-------------5--5-5----3-3-------------5--5-5-|
E|-3-3--------5------3-3-----3-3--------5------3-3-----3-3--------|

           Live our lives in chains
G|-------------------------------------------|
D|-----------235-----------------------------|
A|---3-3-------------5--5-5----3-3-----------|
E|5------3-3-----3-3--------5------3-3-0-1-2-|

  Cause I'm already gone
G|----------|----------|---------|---------|---------|---------|---------|---------|
D|----------|---4-7-54-|--2-5-32-|--2-5-32-|---------|--4-7-54-|--2-5-32-|--2-5-32-|
A|---2-5-32-|-5--------|3--------|3--------|--2-5-32-|5--------|3--------|3--------|
E|-3--------|----------|---------|---------|3--------|---------|---------|---------|

  I will sing
G|----------|----------|---------|---------|---------|---------|---------|---------|
D|----------|---4-7-54-|--2-5-32-|--2-5-32-|---------|--4-7-54-|--2-5-32-|--2-5-32-|
A|---2-5-32-|-5--------|3--------|3--------|--2-5-32-|5--------|3--------|3--------|
E|-3--------|----------|---------|---------|3--------|---------|---------|---------|

  Yes I'm already gone-
  
G|-------------2-5-3-2|-----2-5-3-2|------------|-----4-7-5-4|-----2-5-3-2-|
D|---------3-3--------|-3-3--------|-----2-5-3-2|-5-5--------|-3-3---------|
A|-3------------------|------------|-3-3--------|------------|-------------|
E|------3-------------|------------|------------|------------|-------------|

              I will sing
                          
G|----2-5-3-2|------------|-----4-7-5-4|------2-5-3-2|------2-5-3-2|-------------|
D|3-3--------|-----2-5-3-2|-5-5--------|-3-3---------|-3-3---------|-----2-5-3-2-|
A|-----------|-3-3--------|------------|-------------|-------------|-3-3---------|
E|-----------|------------|------------|-------------|-------------|-------------|


  already gone
  
G|-----4-7-5-4|------2-5-3-2|------2-5-3-2|------------|-----4-7-5-4|-----2-5-3-2-|
D|-5-5--------|-3-3---------|-3-3---------|-----2-5-3-2|-5-5--------|-3-3---------|
A|------------|-------------|-------------|-3-3--------|------------|-------------|
E|------------|-------------|-------------|------------|------------|-------------|
                         
                                                     already gone
                                                 
G|----2-5-3-2|------------|-----4-7-5-4|------2-5-3-2|------2-5-3-2|-------------|
D|3-3--------|-----2-5-3-2|-5-5--------|-3-3---------|-3-3---------|-----2-5-3-2-|
A|-----------|-3-3--------|------------|-------------|-------------|-3-3---------|
E|-----------|------------|------------|-------------|-------------|-------------|

  ( Outro ) 
                                            fade out-
G|-----4-7-5-4|------2-5-3-2|------2-5-3-2|------------|-----4-7-5-4|-----2-5-3-2-|
D|-5-5--------|-3-3---------|-3-3---------|-----2-5-3-2|-5-5--------|-3-3---------|
A|------------|-------------|-------------|-3-3--------|------------|-------------|
E|------------|-------------|-------------|------------|------------|-------------|
            
Submit corrections

comments powered by Disqus
↑ Back to top | Eagles Bass for Already Gone. Lyrics for acoustic guitar and electric guitar. 1 Tablatures and chords are parodies/interpretations of the original songs. You may use it for private study, scholarship, research or language learning purposes only