>
 >
Electric Barbarella

Electric Barbarella Guitar Tabs

Duran Duran - Electric Barbarella chords, tabs, tablatures, lyrics

Guitar lessons | Add/correct | Request | Top 50 tabs Artists:  A B C D E F G H I J K L M N O P Q R S T U V W X Y Z 0-9

Electric Barbarella Guitar Tabs – Duran Duran

CD, Sheet music, Poster

Do you like Electric Barbarella? Share with your friends now
ChordsChords v2TabsUkulele


Intro

e|--5-3-----5-3------7-5-------|
B|------3-------3--------5-----|
G|-----------------------------|
D|-----------------------------|
A|-----------------------------|
E|-----------------------------|



VERSE 1

*Pattern for verse (this is actually the bass part, but it can be 

played on guitar):

     D5          Bb5         A5          C5
e|--------------------------------------------------|
B|--------------------------------------------------|
G|------7-----7-------------------------------------|
D|------------------8-----8-----7-----7-----10---10-|
A|---5-----5----------------------------------------|
E|---------------6-----6-----5-----5-----8-----8----|
  
     D5          Bb5         A5
e|--------------------------------------------------|
B|--------------------------------------------------|
G|------7-----7-------------------------------------|
D|------------------8-----8-----7-----7-----7-----7-|
A|---5-----5----------------------------------------|
E|---------------6-----6-----5-----5-----5-----5----|


  D5               Bb5            A5       C5 
I knew from when I saw you on the showroom floor

D5           Bb5      A5     
    You were made for me

D5                Bb5               A5  C5     
Took you home and dressed you up in polyester

D5     Bb5  A5
   Princess of my dreams

 D5    Bb5      A5      C5
Emotionless and cold as ice

D5         Bb5      A5 
All of the things I like 

    D5               Bb5              C5            F5   
The way you look the way you move the sounds you're making

e|-----------------------------------|
B|-----------------------------------|
G|-----------------------------------|
D|-------------------------------7---|
A|--5---8------------------------5---|
E|--3---6----------------------------|
        Ultra-chrome, latex and steel



CHORUS

e|-----------------------------------|
B|--7---7---7---12--12-10-12b13-12---|
G|--7---7---7---12-------------------|
D|--7---7---7---12-------------------|
A|--5---5---5---10-------------------|
E|-----------------------------------|
    I plug you  in

e|------------------------------------------|
B|---8-------8-------8-10-10---12-10-10-7---|
G|---9-------9-------9-10-10---12-10-10-7---|
D|--10------10------10-10-10---12-10-10-7---|
A|----------------------8--8---10--8--8-5---|
E|------------------------------------------|
    Dim the lights, E -lectric Barbarella

e|-----------------------------------|
B|--7---7---7---12--12-10-12b13-12---|
G|--7---7---7---12-------------------|
D|--7---7---7---12-------------------|
A|--5---5---5---10-------------------|
E|-----------------------------------|
    Try to  re -sist

e|------------------------------------------|
B|---8-------8-------8-10-10-10---10--3-----|
G|---9-------9-------9-10-10-10---10--3-----|
D|--10------10------10-10-10-10---10--3-----|
A|----------------------8--8--8----8--1-----|
E|------------------------------------------|
    Then we touch,  ha llu cinate and tranquilize 

e|--5-3-----5-3------7-5-------|
B|------3-------3--------5-----|
G|-----------------------------|
D|-----------------------------|
A|-----------------------------|
E|-----------------------------|


INTERLUDE

*Play verse chords and pattern, and use this fill

e|-------------------------------|
B|-----15~-----------14-13-12/---|
G|-------------------------------|
D|--12------12-12-11-------------|
A|-------------------------------|
E|-------------------------------|



VERSE 2

    D5         Bb5        A5     C5
Our private is subject to investigation

D5    Bb5     A5
   No time to waste

D5              Bb5             A5  C5
People say they heard about our deviation

D5         Bb5   A5
   But you never looked so good

Throw in this:
e|---------15--|
B|---18b20-----|

D5        Bb5          A5         C5
Wear fake fur and fake pearls for me

    D5          Bb5  A5
And put on your mystery

    D5             Bb5             C5       F5     
The way I feel you know I'll never keep you waiting


e|-----------------------------------|
B|-----------------------------------|
G|-----------------------------------|
D|-------------------------------7---|
A|--5---8------------------------5---|
E|--3---6----------------------------|
        Ultra-chrome, latex and steel



REPEAT CHORUS



SOLO

e|-------15-----15-----15-----15-------------17-17-15--|
B|--18b20--18b20--18b20--18b20--18b20-20-20------------|
G|-----------------------------------------------------|
D|-----------------------------------------------------|
A|-----------------------------------------------------|
E|-----------------------------------------------------|

e|-------15-----15-----15-----15-------------17-17-15--|
B|--18b20--18b20--18b20--18b20--18b20-20-20------------|
G|-----------------------------------------------------|
D|-----------------------------------------------------|
A|-----------------------------------------------------|
E|-----------------------------------------------------|

e|-------15-----15-----15-----15-------------17-17-15--|
B|--18b20--18b20--18b20--18b20--18b20-20-20------------|
G|-----------------------------------------------------|
D|-----------------------------------------------------|
A|-----------------------------------------------------|
E|-----------------------------------------------------|

*This part requires a guitar with at least 25 frets...if you're 

like me and don't have that, just hit the high D on the E string 

repeatedly

e|-------22-----22-----22-----22-----22------22-----22-----22-|
B|--25b27--25b27--25b27--25b27--25b27---25b27--25b27--25b27---|
G|------------------------------------------------------------|
D|------------------------------------------------------------|
A|------------------------------------------------------------|
E|------------------------------------------------------------|

e|-------15-----15-----15-----15-------------17-17-15--|
B|--18b20--18b20--18b20--18b20--18b20-20-20------------|
G|-----------------------------------------------------|
D|-----------------------------------------------------|
A|-----------------------------------------------------|
E|-----------------------------------------------------|

e|-------15-----15-----15-----15-------------17-17-15--|
B|--18b20--18b20--18b20--18b20--18b20-20-20------------|
G|-----------------------------------------------------|
D|-----------------------------------------------------|
A|-----------------------------------------------------|
E|-----------------------------------------------------|

e|-------22-----22-----22-----22-----22------22-----22-----22-|
B|--25b27--25b27--25b27--25b27--25b27---25b27--25b27--25b27---|
G|------------------------------------------------------------|
D|------------------------------------------------------------|
A|------------------------------------------------------------|
E|------------------------------------------------------------|


PRE-CHORUS

e|-----------------------------------|
B|--7---7---7---12--12-10-12b13-12---|
G|--7---7---7---12-------------------|
D|--7---7---7---12-------------------|
A|--5---5---5---10-------------------|
E|-----------------------------------|


e|------------------------------------------|
B|---8-------8-------8-10-10---12-10-10-7---|
G|---9-------9-------9-10-10---12-10-10-7---|
D|--10------10------10-10-10---12-10-10-7---|
A|------------------------------------------|
E|------------------------------------------|


REPEAT CHORUS


OUTRO

*Same pattern as verses

D5     Bb5  A5    C5
   Princess of my dreams

D5     Bb5  A5    C5
   Princess of my dreams

D5         Bb5        A5   C5
Major domo plasticomo Barbarella

D5  Bb5       A5  C5
         She's so fine

*Start playing this during the remaining lines:
e|-------------------------------|
B|-----15~-----------14-13-12/---|
G|-------------------------------|
D|--12------12-12-11-------------|
A|-------------------------------|
E|-------------------------------|

D5          Bb5          A5   C5
Pro-genetic you Electric Barbarella

D5  Bb5       A5  C5
         She's so fine

D5              Bb5            A5   C5
Pretty, pretty, pretty, pretty Barbarella

D5  Bb5  A5   C5
         Barbarella

D5  Bb5  A5   C5
         Barbarella

D5  Bb5  A5   C5
         Barbarella

D5  Bb5  A5   C5
         Barbarella





Comments


Popular Duran Duran tabs & chords
Hold Back The Rain Bass Tabs
Night Boat Bass Tabs
Late Bar Chords
Too Bad Youre So Beautiful Chords
Needle And The Damage Done Tabs
Box Full O Honey Ukulele
Girl Panic Ukulele
Playing With Uranium Ukulele
Pop Trash Movie Ukulele
Wild Boys Ukulele


Song lyrics



↑ Back to top | Tablatures and chords are parodies/interpretations of the original songs. You may use it for private study, scholarship, research or language learning purposes only
© 2014 AZChords.com Contact us | Privacy policy | DMCA | Add/correct tabs | Request tabs | Top 50 tabs