» » »

Rio Bass tabs (ver.1)

Artists:  A B C D E F G H I J K L M N O P Q R S T U V W X Y Z # 

Rio Bass tabs (ver.1)

Duran Duran
Rating:
0/5 (0 votes)

Hard to play? Try these video lessons and learn fast.
                Duran Duran - Rio

A reasonably easy Duran Duran thing here; listen to the song to get the timing correect. This
is just the intro/verse part - the chorus bassline is also a bit easy, so I'll
consider doing that next!

verse 1
G-|-----------0-1-2-----------0-1-2-------2---------------5-----------------------
D-|-----2--0------------2--0------------2------2---2----5------5---5--------------
A-|----------------------------------0-----------0---3-----------3----------------
E-|--0---------------0------------------------------------------------------------

chorus
G-|------------0-1-2-----------0-1-2-------6---------------5----------------------
D-|-----2--0------------2--0------------6------6---6----5------5---5--------------
A-|----------------------------------4-----------4---3-----------3----------------
E-|--0---------------0------------------------------------------------------------


you need a bit of speed to play this song ...use all your fingers
you have to be bomb alic to play this its a bit anoying
            
Hard to play? Try these video lessons and learn fast. | Correct




comments powered by Disqus
↑ Back to top | Tablatures and chords are parodies/interpretations of the original songs. You may use it for private study, scholarship, research or language learning purposes only