» » »

Duran Duran, Do You Believe In Shame? Bass tabs (ver.1)

Artists:  A B C D E F G H I J K L M N O P Q R S T U V W X Y Z # 

Do You Believe In Shame? Bass tabs (ver.1)

Duran Duran Tabs
 Rating:
4/5 (4 votes)
Do You Believe In Shame? lessons Tabs too difficult? Try these video lessons and learn fast
1
                 Do You Believe In Shame Bass Tab / Duran Duran
  Base

 G ------------------------------------------------------------|
 D ------------------------------------------------------------|
 A --5-5-5-5-(x8)--8-8-8-8-(x2)--10-10-10-10-(x2)--5-5-5-5(4)--|
 E ------------------------------------------------------------|

  (01:15)       (01:32) 

 G ---------|  G ---------|
 D ---------|  D ---------|
 A --0-3-4--|  A --0-3-0--|
 E ---------|  E ---------|

  (02:25)

 G -------------------------------------------|
 D -------------------------------------------|
 A --3-3-3-3-(x4)--5-5-5-5-(x2)---------------|
 E ------------------------------3-3-3-3-(2)--|

   (02:34)
 
 G --------------------------------------------------|
 D --------------------------------------------------|
 A --1-1-1-1-(4)--3-3-3-3-(x2)--10-10-10-10-(x2)-10--|
 E --------------------------------------------------|

   (03:11)

 G ---------------------------------------|
 D -----7-8-9-10--9-8-7-------------------|
 A ---8-----------------10-10-10-10-(x2)--|
 E ---------------------------------------|

   (03:24)

 G -----------------------------------|
 D -----------------------------------|
 A --5-5-5-5-(x2)--5-5-5--0-3--0-3-4--| (10)
 E -----------------------------------|
            
Submit corrections

comments powered by Disqus
↑ Back to top | Duran Duran Bass for Do You Believe In Shame?. Lyrics for acoustic guitar and electric guitar. 1 Tablatures and chords are parodies/interpretations of the original songs. You may use it for private study, scholarship, research or language learning purposes only