» » »

Hei Det Er Meg Tabs (ver.1)

Artists:  A B C D E F G H I J K L M N O P Q R S T U V W X Y Z # 

Hei Det Er Meg Tabs (ver.1)

Dumdum Boys
Rating:
5/5 (1 vote)

Hard to play? Try these video lessons and learn fast.
                Intro
E|--------1--------:|
H|-1~-1~------1~---:|
G|-3~-2h3---3-2-0~-:|x2
D|-----------------:|
A|-----------------:|
E|-----------------:|

Vers
   F    B  Gm      C  B  /A  D       D#    Csus4
E|---1--------6-p5-3---------------------|-1~-----1-------:|
H|---1--3-----3~---3----3----------------|-1~-------------:|
G|---2--3--0~-----------3----2-2-0-2-3-2-|-0--2h3---3-2-0-:|
D|-4----3--0~-----------3-3--0-0-0-0-1-1-|-X--------------:|x2
A|--------------------1---0--------------|-3~-------------:|
E|---------------------------------------|----------------:|

Mellomvers
   G6/E  C    G6/E  C     Dm   C   Dm  B     Csus4
E|---3-----0-----3----0-|---1----0---1-----|-1~----1-------|
H|---3-----1-----3----1-|---3----1---3---3-|-1~------------|
G|---4-----0-----4----0-|---2----0---2---3-|-0—2h3---3-2-0-|
D|-2-------2---2------2-|-0------2—0-----3-|-X-------------|
A|-------3----------3---|------3-------1---|-3~------------|
E|----------------------|------------------|---------------|

Refreng
Refrenget spilles med ”vanlige” viseakkorder og er følgende:
Dm – C – F – B – F – B – F – F/E
Dm – C – F – B – F – B – Csus4(samme riffet som på mellomverset med Csus4 to ganger)

Akkordene spilles:
   Dm  C   F   B  Csus4
E|-1-|-0-|-1-|-1-|-1---|
H|-3-|-1-|-1-|-3-|-1---|
G|-2-|-0-|-2-|-3-|-0---|
D|-0-|-2-|-3-|-3-|-x---|
A|-x-|-3-|-3-|-1-|-3---|
E|-x-|-x-|-1-|-x-|-x---|

Vers
Mellomvers
Refreng

Bridge:
   Dm7             Bsus2  Dm7             Bsus2  C   Bsus2
E|-------------5~-|-1~--|-------------5~-|-1~--|-0~-|-1~-|
H|-----6---8------|-1~--|-----8---6-8----|-1~--|-1~-|-1~-|
G|---5---5---5----|-3~--|---5---5--------|-3~--|-0~-|-3~-|
D|-0--------------|-3~--|-0--------------|-3~--|-2~-|-3~-|
A|----------------|-1~--|----------------|-1~--|-3~-|-1~-|
E|----------------|-----|----------------|-----|----|----|

E|-1-:  |---:  | Samme riffet som på mellomverset med Csus4 to ganger
H|-1-:  |-3-:  |
G|-2-:x8|-3-:x7|
D|-3-:  |-3-:  |
A|---:  |---:  |
E|---:  |---:  |

Refreng
Et halvt vers(og siste akkord er B)

~ = La strengene klinge
h = hammer on
p = pull off
b = bend
r = release
: = gjenta
            
Hard to play? Try these video lessons and learn fast. | Correct




comments powered by Disqus
↑ Back to top | Tablatures and chords are parodies/interpretations of the original songs. You may use it for private study, scholarship, research or language learning purposes only