>
 >
Enhjrning Lead Guitar

Enhjrning Lead Guitar Guitar Tabs

Dumdum Boys - Enhjrning Lead Guitar chords, tabs, tablatures, lyrics

Guitar lessons | Add/correct | Request | Top 50 tabs Artists:  A B C D E F G H I J K L M N O P Q R S T U V W X Y Z 0-9

Enhjrning Lead Guitar Guitar Tabs – Dumdum Boys

CD, Sheet music, Poster

Do you like Enhjrning Lead Guitar? Share with your friends now
Tabs
Instrument: Lead Guitar


correctley it should sound right.

LEAD

Ref/Intro:


e:----------------------------------------------------------------------------------------------------------------------------------|
H:----------------------------------------------------------------------------------------------------------------------------------|
G:----------------------------------------------------------------------------------------------------------------------------------|
D:-777-77--4444444--777-77--4444444--777-77--4444444---7b~~7777---04----------------------------------------------------------------|
A:-554-54--4444444--554-54--4444444--554-54--4444444---7b~~7777---04----------------------------------------------------------------|
E:---------2222222----------2222222----------2222222---5b~~5555---02----------------------------------------------------------------|


Vers:

e----------------------------------------------------------------------------------------------------------------------------------|
H----------------------------------------------------------------------------------------------------------------------------------|
G---4-6----4-6----4-6----4-6----4-6----4-6----4-6----------------------------------------------------------------------------------|
D---4-6-4--4-6-7--4-6-4--4-6-4--4-6-4--4-6-7--4-6-4--------------------------------------------------------------------------------|
A:--2-4-4--2-4-7--2-4-4--2-4-4--2-4-4--2-4-7--2-4-4--------------------------------------------------------------------------------|
E:------2------5------2------2------2------5------2--------------------------------------------------------------------------------|


Ref:

e:------------------------------------------------------0--0-0~~--------------------------------------------------------------------|
H:------------------------------------------------------4b-4-5~~--------------------------------------------------------------------|
G:----------------------------------------------------------------------------------------------------------------------------------|
D:-777-77--4444444--777-77--4444444--777-77--4444444--------------------------------------------------------------------------------|
A:-554-54--4444444--554-54--4444444--554-54--4444444--------------------------------------------------------------------------------|
E:---------2222222----------2222222----------2222222--------------------------------------------------------------------------------|


Vers:

e-----------------------------------------------------------------------------------------------------------------------------------|
H---------------------------------------------------------2-------------------------------------------------------------------------|
G---4-6----4-6----4-6----4-6----4-6-----6b-6h4--4-424-424-1b---2-4b(hold bend)-4h2--------------------------------------------------|
D---4-6-4--4-6-7--4-6-4--4-6-4--4-6-4---------4-4-424-424-----4-------------------4~~-----------------------------------------------|
A:--2-4-4--2-4-7--2-4-4--2-4-4--2-4-4-----------------------------------------------------------------------------------------------|
E:------2------5------2------2------2-----------------------------------------------------------------------------------------------|


Ref:

e:-----------------------------------------------------4/5/4-4-9---------------------------------------------------------------------|
H:-----------------------------------------------------------7-7---------------------------------------------------------------------|
G:-----------------------------------------------------------------------------------------------------------------------------------|
D:-777-77--4444444--777-77--4444444--777-77--4444444---------------------------------------------------------------------------------|
A:-554-54--4444444--554-54--4444444--554-54--4444444---------------------------------------------------------------------------------|
E:---------2222222----------2222222----------2222222---------------------------------------------------------------------------------|


Solo:   ????, I'll figure it out soon....

Vers:

e------------------------------------------------------------------------------------------------------------------------------------|
H------------------------------------------------------------------------------------------------------------------------------------|
G---4-6----4-6----4-6----4-6----4-6----4-6----4-6------------------------------------------------------------------------------------|
D---4-6-4--4-6-7--4-6-4--4-6-4--4-6-4--4-6-7--4-6-4----------------------------------------------------------------------------------|
A:--2-4-4--2-4-7--2-4-4--2-4-4--2-4-4--2-4-7--2-4-4----------------------------------------------------------------------------------|
E:------2------5------2------2------2------5------2----------------------------------------------------------------------------------|

Ref/Outro

e:---14b-------------------------------------------------------------------------------------------------------------------------------|
H:-------12h13h12/10h12 10h12----------------------------------12--12h13-12b-----------------------------------------------------------|
G:---------------------------------------9-9--9------------------14---------14h11-11---------------------99h11--11b-11-11h9------------|
D:-------------------------------------11---11-11/9/7----------------------------------------------------99h11--11b-11-11h9------------|
A:----------------------------------------------------------------------------------------???????????-----------------------9----------|
E:--------------------------------------------------------------------------------------lots-of-false-tones----------------------------|


Starts right after the vocal says :Jeg er en Enhjørning
e:---------9--------------9-------------------------------------------------------------------------------------------------------------|
H:--9-12-9-9--9h12p9-12-9-9-9-12---------9-10--9h10p9-----------------------------------------------------------------------------------|
G:--9-11-9----9h11p9-11-9---9-11---11b11---------------10h9------------------9-------------------------9--9--9--9--9--9--99h7-----------|
D:----------------------------------------------------------9/7---7h9p7--9-9-----11-11h9---------------9b-9b-9b-9b-9b-9b-99h7-----------|
A:--------------------------------------------------------------7------------------------12-12/14-14--------------------------9vibrato--|
E:--------------------------------------------------------------------------------------------------------------------------------------|


RHYTHM

Ref/Intro:


e:----------------------------------------------------------------------------------------------------------------------------------|
H:----------------------------------------------------------------------------------------------------------------------------------|
G:----------------------------------------------------------------------------------------------------------------------------------|
D:-777-77--4444444--777-77--4444444--777-77--4444444---7b~~7777---04----------------------------------------------------------------|
A:-554-54--4444444--554-54--4444444--554-54--4444444---7b~~7777---04----------------------------------------------------------------|
E:---------2222222----------2222222----------2222222---5b~~5555---02----------------------------------------------------------------|


Vers:

e----------------------------------------------------------------------------------------------------------------------------------|
H----------------------------------------------------------------------------------------------------------------------------------|
G---4-6----4-6----4-6----4-6----4-6----4-6----4-6----------------------------------------------------------------------------------|
D---4-6-4--4-6-7--4-6-4--4-6-4--4-6-4--4-6-7--4-6-4--------------------------------------------------------------------------------|
A:--2-4-4--2-4-7--2-4-4--2-4-4--2-4-4--2-4-7--2-4-4--------------------------------------------------------------------------------|
E:------2------5------2------2------2------5------2--------------------------------------------------------------------------------|


Ref:

e:----------------------------------------------------------------------------------------------------------------------------------|
H:----------------------------------------------------------------------------------------------------------------------------------|
G:----------------------------------------------------------------------------------------------------------------------------------|
D:-777-77--4444444--777-77--4444444--777-77--4444444-777-77--7b~~7777---04----------------------------------------------------------|
A:-554-54--4444444--554-54--4444444--554-54--4444444-554-54--7b~~7777---04----------------------------------------------------------|
E:---------2222222----------2222222----------2222222---------5b~~5555---02----------------------------------------------------------|


Vers:

e----------------------------------------------------------------------------------------------------------------------------------|
H----------------------------------------------------------------------------------------------------------------------------------|
G---4-6----4-6----4-6----4-6----4-6----4-6----4-6----------------------------------------------------------------------------------|
D---4-6-4--4-6-7--4-6-4--4-6-4--4-6-4--4-6-7--4-6-4--------------------------------------------------------------------------------|
A:--2-4-4--2-4-7--2-4-4--2-4-4--2-4-4--2-4-7--2-4-4--------------------------------------------------------------------------------|
E:------2------5------2------2------2------5------2--------------------------------------------------------------------------------|


Ref:

e:----------------------------------------------------------------------------------------------------------------------------------|
H:----------------------------------------------------------------------------------------------------------------------------------|
G:----------------------------------------------------------------------------------------------------------------------------------|
D:-777-77--4444444--777-77--4444444--777-77--4444444-777-77--7b~~7777---04----------------------------------------------------------|
A:-554-54--4444444--554-54--4444444--554-54--4444444-554-54--7b~~7777---04----------------------------------------------------------|
E:---------2222222----------2222222----------2222222---------5b~~5555---02----------------------------------------------------------|


Solo-Riff

e----------------------------------------------------------------------------------------------------------------------------------|
H----------------------------------------------------------------------------------------------------------------------------------|
G---------------------------------------------------------------------------44444444--5-5-5-5--------------------------------------|
D---4--3--2----------------4--3--2----------------4--3--2-------------------44444444--5-5-5-5-0-4----------------------------------|
A:----------0h2p0-2-3h2p0----------0h2p0-2-3h2p0-----------0h2p0--3h2p0-----22222222--3-3-3-3-0-4----------------------------------|
E:--------------------------------------------------------------------------------------------0-2----------------------------------|

Vers:

e----------------------------------------------------------------------------------------------------------------------------------|
H----------------------------------------------------------------------------------------------------------------------------------|
G---4-6----4-6----4-6----4-6----4-6----4-6----4-6----------------------------------------------------------------------------------|
D---4-6-4--4-6-7--4-6-4--4-6-4--4-6-4--4-6-7--4-6-4--------------------------------------------------------------------------------|
A:--2-4-4--2-4-7--2-4-4--2-4-4--2-4-4--2-4-7--2-4-4--------------------------------------------------------------------------------|
E:------2------5------2------2------2------5------2--------------------------------------------------------------------------------|


Ref:

e:----------------------------------------------------------------------------------------------------------------------------------------------------|
H:----------------------------------------------------------------------------------------------------------------------------------------------------|
G:----------------------------------------------------------------------------------------------------------------------------------------------------|
D:-777-77--4444444--777-77--4444444--777-77--4444444-777-77--7b~~7777--777-77--4444444--777-77--4444444--777-77--4444444--777-77--4444444--7b~~7777---|
A:-554-54--4444444--554-54--4444444--554-54--4444444-554-54--7b~~7777--554-54--4444444--554-54--4444444--554-54--4444444--554-54--4444444--7b~~7777---|
E:---------2222222----------2222222----------2222222---------5b~~5555----------2222222----------2222222----------2222222----------2222222--5b~~5555---|





Comments


Popular Dumdum Boys tabs & chords
Enhjrning Bass Tabs
Splitter Pine Chords
Stjernesludd 1 Chords
Blind Tabs
Enhjrning Tabs
Hagelangs Tabs
Idyll Tabs
Splitter Pine Tabs
Splitter Pine 1 Tabs
Splitter Pine 3 Tabs


Song lyrics



↑ Back to top | Tablatures and chords are parodies/interpretations of the original songs. You may use it for private study, scholarship, research or language learning purposes only
© 2014 AZChords.com Contact us | Privacy policy | DMCA | Add/correct tabs | Request tabs | Top 50 tabs