» » »

Dumdum Boys, Blind Tabs (ver.1)

Artists:  A B C D E F G H I J K L M N O P Q R S T U V W X Y Z # 

Blind Tabs (ver.1)

Dumdum Boys Tabs
 Rating:
4/5 (4 votes)
Blind lessons Tabs too difficult? Try these video lessons and learn fast
                DumDum Boys - Blind
===================

Band : DumDum Boys
Music: Kristiansen/Karlsen
Text : Kristiansen

Another DumDum Boys tab from me; a great song
me through many hours during nightwatch, and
here is my interpretation of it!

"Blind" is pretty simple; easier than it sounds
at first. Its basically just small variations on
four chords: Bm, A, D and G.

---

Intro:

Strum softly on lower volume

e-------5-----------------------------------------|
B-------3-----------------------------------------|
G-------2-------2--4--2---------------------------|
D-------0----4------------------------------------|
A-------------------------------------------------|
E-------------------------------------------------|

Verse:

       Bm      A      D             D
e-------2------0------2--3-------0--2-------------|
B-------3------2------3--3-------3--3-------------|
G-------4------2------2--2-------2--2-------------|
D-------4------2------0--0-------0--0-------------|
A-------2----0------------------------------------|
E-------------------------------------------------|


       Bm      A    A     D             D
e-------2------0----0-----2--3-------0--2---------|
B-------3------2----2-----3--3-------3--3---------|
G-------4------2----2-----2--2-------2--2---------|
D-------4------2----2-----0--0-------0--0---------|
A-----0h2----0----0-------------------------------|
E-------------------------------------------------|


       Bm      A    A     D             D
e-------2------0----0-----2--3-------0--2---------|
B-------3------2----2-----3--3-------3--3---------|
G-------4------2----2-----2--2-------2--2---------|
D-------4------2----2-----0--0-------0--0---------|
A-----0h2----0----0-------------------------------|
E-------------------------------------------------|


       Bm      A      G
e-------2------0------3---------------------------|
B-------3------2------3---------------------------|
G-------4------2------0---------------------------|
D-------4------2------0---------------------------|
A-------2------0------2---------------------------|
E---------------------3---------------------------|

Interlude:

(Play this first part twice)

e-------------------------------------------------|
B-------------3~~~---------3~~~---------3~~~------|
G-----------2------------2------------2-----------|
D-------2s4----------2s4----------2s4-------------|
A-------------------------------------------------|
E-------------------------------------------------|

(Then this)
e-------------------------------------------------|
B----------3----------------3p2-3~~~--------------|
G--------2----------------------------------------|
D------4-------2p0---2p0--------------------------|
A-------------------------------------------------|
E-------------------------------------------------|

Chorus:

       Bm      A      D
e-------2------0-0----2h3--3----------------------|
B-------3------2-3----3----3----------------------|
G-------4------2-2----2----2----------------------|
D-------4------2-2----0----0----------------------|
A-----0h2----0------------------------------------|
E-------------------------------------------------|

       Bm      A      G    D
e-------2------0-0----3----2----------------------|
B-------3------2-3----3----3----------------------|
G-------4------2-2----0----2----------------------|
D-------4------2-2----0----0----------------------|
A-----0h2----0--------2---------------------------|
E---------------------3---------------------------|

       Bm      A      D
e-------2------0-0----2h3--3----------------------|
B-------3------2-3----3----3----------------------|
G-------4------2-2----2----2----------------------|
D-------4------2-2----0----0----------------------|
A-----0h2----0------------------------------------|
E-------------------------------------------------|

       Bm       A      D            G
e-------2-2-----0-0----2-3----------3-------------|
B-------3-3-----2-3----3-3----5-----3-------------|
G-------4-4-----2-2----2-2----4-----0-------------|
D-------4-4-----2-2----0-0----------0-------------|
A-------2-2-----0-0-----------------2-------------|
E-----------------------------------3-------------|

Solo:

(Play this first part 3 times)
e-------5---------------------5-------------------|
B-------3---------------------3-------------------|
G-------2-------2--4--2-------2-------2--4--2-----|
D-------0----4----------------0----4--------------|
A-------------------------------------------------|
E-------------------------------------------------|

(Then this)
e-------5-------------------------5---------------|
B-------3---------------------6b7---6s7-----------|
G-------2-------2--4--2---------------------------|
D-------0----4------------------------------------|
A-------------------------------------------------|
E-------------------------------------------------|

Play in following order:

Intro
Verse
Interlude - x2
Verse
Chorus
Interlude - x2
Verse
Chorus
Solo
Chorus till song fades

Enjoy!

- EOF -
            
Submit corrections

comments powered by Disqus
↑ Back to top | Dumdum Boys Tabs for Blind. Lyrics for acoustic guitar and electric guitar. Tablatures and chords are parodies/interpretations of the original songs. You may use it for private study, scholarship, research or language learning purposes only