» » »

Drowning Pool, This Life Tabs (ver.1)

Artists:  A B C D E F G H I J K L M N O P Q R S T U V W X Y Z # 

This Life Tabs (ver.1)

Drowning Pool Tabs
 Rating:
4/5 (4 votes)
This Life lessons Tabs too difficult? Try these video lessons and learn fast
1
                
Tuning: Drop B

Intro: Sounds good...its not perfect but it does the trick. Just have to get the rythm down

----------------------------------------5~---------------------------------------|
-----0------0---0---0------0----0-----0------------------------------------------|
---5---5~-----5---5~-----5---5~----5---------------------------------------------|
-0---------------------0---------------------------------------------------------|
---------------------------------------------------------------------------------|
---------------------------------------------------------------------------------| X2

Verse:

------------------------------------------------------------------------5------|
-----0-----0------------0------0---0---0-------0----0---------------0----------|
---5---5~-----5-------5---5------5---5-------5---5-----5----------5---5--------|
----------------0-----------------------------------------0--------------------|
-5------------------5----------------------5------------------5----------------|
-------------------------------------------------------------------------------|

Pre-Chorus:

-------------------------------------|
-------------------------------------|
-------------------------------------|       Play Right Before Chorus
-0~---3~---      [--3-3-3--5-7/------|
-0~---3~---      [--3-3-3--5-7/------|
-0~---3~--- X4   [--3-3-3--5-7/------|

Chorus:

--------------------------------------------------------------------------|
--------------------------------------------------------------------------|
--------------------------------------------------------------------------|
-0----0~--0---3-3----3--5-5-5--5-5-5--------------------------------------|
-0-00-0~--0---3-3-33-3--5-5-5--5-5-5--------------------------------------|
-0-00-0~--0---3-3-33-3--5-5-5--5-5-5--------------------------------------|
   **             **

--------7^-------------|
---7^-------7^---------|
-----7^----------------|
-7^--------------------|
-----------------------|
-----------------------| X2
Harmonics~


Verse:

-----------------------------5~---|
------0-----0------------0--------|
----5---5~-----5-------5---5------|
-----------------0----------------|
-5-------------------5------------|
----------------------------------|X some odd amount of times...

Pre-Chorus:

-------------------------------------|
-------------------------------------|
-------------------------------------|       Play Right Before Chorus
-0~---3~---      [--3-3-3--5-7/------|
-0~---3~---      [--3-3-3--5-7/------|
-0~---3~--- X4   [--3-3-3--5-7/------|


Chorus


Play During Solo:

-----------------------|
-----------------------|
-----------------------|
-0~--3~--0--3-5~-------|
-0~--3~--0--3-5~-------|
-0~--3~--0--3-5~-------|

-------------------------------------|
-------------------------------------|
-------------------------------------|       Play Right Before Chorus
-0~---3~---      [--3-3-3--5-5/------|
-0~---3~---      [--3-3-3--5-5/------|
-0~---3~--- X4   [--3-3-3--5-5/------|

Chorus


Outro:

--------------------------------------------------------|
--------------------------------------------------------|
--77---77---77---77-----555555555555555-----------------|
--xx---xx---xx---xx-----xxxxxxxxxxxxxxx-----------------|
--55---55---55---55-----333333333333333-----------------|
-----0----0----0-----0----------------------------------|

Another Great Song by Drowning Pool...Enjoy. *Please Rate!*
            
Submit corrections

comments powered by Disqus
↑ Back to top | Drowning Pool Tabs for This Life. Lyrics for acoustic guitar and electric guitar. 1 Tablatures and chords are parodies/interpretations of the original songs. You may use it for private study, scholarship, research or language learning purposes only