>
 >
Think

Think Guitar Tabs

Drowning Pool - Think chords, tabs, tablatures, lyrics

Guitar lessons | Add/correct | Request | Top 50 tabs Artists:  A B C D E F G H I J K L M N O P Q R S T U V W X Y Z 0-9

Think Guitar Tabs – Drowning Pool

CD, Sheet music, Poster

Do you like Think? Share with your friends now
Tabs
Tuning: B, F#, B, E, G#, C#

|---------------------------------------------------------------------------|
|------0-0--------------0--0--------------0--0-----------------------------|
|---------------------------------------------------------------------------|
|---------------------------------------------------------------------------|
|---------------------------------------------------------------------------|
|-2------------0--3--2----------0--3--2------------0--3--2\-----------------|

|---------------------------------------------------------------------------|
|---------------------------------------------------------------------------|
|--------------------------------------------------------X2-----------------|
|---------------------------------------------------------------------------|
|-2----2-5-3-2------2--5-3-2-0--2--2-5-3-2----03-------------------------|
|--2----2-5-3-2------2--5-3-2-0--2-2-5-3-2----0--3-------------------------|

|---------------------------------------------------------------------------|
|----0----0----0----0---------0----0----0-----------------------------------|
|--------------------------------------------0--0--0-------X4-------------|
|---------------------------------------------------------------------------|
|--2----3----2----3---2-0---2----3----2----3--5--3------------------------|
|-2----3----2----3---2-0---2----3----2----3----5--3------------------------|

|---------------------------------------------------------------------------|
|---------------------------------------------------------------------------|
|---------------------------------------------------------------------------|
|---------------------------------------------------------------------------|
|----------3-------2------2------2--0--0-------------3-------2------2------|
|-2-2-2-2--3--3--3-2-2-2--2-3-3--2-2-0--0----2-2-2-2--3--3--3-2-2-2--2-3-3--|
 ........     ....   ...    ...    .         .......     ....   ...    ...


|---------------------------------------------------------------------------|
|---------------------------------------------------------------------------|
|---------------------------------------------------------------------------|
|----------X2--3-3--3-3--3-3---------------------------------------------|
|5-5-3-3--------3-3--3-3--3-3---------------------------------------------|
|5-5-3-3--------3-3--3-3--3-3---------------------------------------------|

|---------------------------------------------------------------------------|
|---------------------------------------------------------------------------|
|--------------------------------------------------------X2-----------------|
|---------------------------------------------------------------------------|
|-2----2-5-3-2------2--5-3-2-0--2--2-5-3-2----03-------------------------|
|--2----2-5-3-2------2--5-3-2-0--2-2-5-3-2----0--3-------------------------|

|---------------------------------------------------------------------------|
|---------------------------------------------------------------------------|
|-4-4-4-5-5-5-4-4-4-5-5-5-4-4-2-2-4-4-4-5-5-5-4-4-4-5-5-5-7-7-5-5-4-4-4-5-5-|
|-2-2-2-3-3-3-2-2-2-3-3-3-2-2-0-0-2-2-2-3-3-3-2-2-2-3-3-3-5-5-3-3-2-2-2-3-3-|
|-2-2-2-3-3-3-2-2-2-3-3-3-2-2-0-0-2-2-2-3-3-3-2-2-2-3-3-3-5-5-3-3-2-2-2-3-3-|
|-2-2-2-3-3-3-2-2-2-3-3-3-2-2-0-0-2-2-2-3-3-3-2-2-2-3-3-3-5-5-3-3-2-2-2-3-3-|

|---------------------------------------------------------------------------|
|---------------------------------------------------------------------------|
|5-4-4-4-5-5-5-4-4-2-2-4-4-4-5-5-5-4----------------------------------------|
|3-2-2-2-3-3-3-2-2-0-0-2-2-2-3-3-3-2----------------------------------------|
|3-2-2-2-3-3-3-2-2-0-0-2-2-2-3-3-3-2----------------------------------------|
|3-2-2-2-3-3-3-2-2-0-0-2-2-2-3-3-3-2----------------------------------------|

And just as soon...
|---------------------------------------------------------------------------|
|---------------------------------------------------------------------------|
|-------------------------------------------------------------X4------------|
|---------------------------------------------------------------------------|
|-2----3----2----3----2--0----2----3----2----3----5--3--------------------|
|-2----3----2----3----2--0----2----3----2----3----5--3--------------------|

|---------------------------------------------------------------------------|
|---------------------------------------------------------------------------|
|---------------------------------------------------------------------------|
|---------------------------------------------------------------------------|
|----------3-------2------2------2--0--0-------------3-------2------2------|
|-2-2-2-2--3--3--3-2-2-2--2-3-3--2-2-0--0----2-2-2-2--3--3--3-2-2-2--2-3-3--|
 ........    .....   ...    ...    .         .......     ....   ...    ...
|---------------------------------------------------------------------------|
|---------------------------------------------------------------------------|
|---------------------------------------------------------------------------|
|----------X2--3-3--3-3--3-3---------------------------------------------|
|5-5-3-3--------3-3--3-3--3-3---------------------------------------------|
|5-5-3-3--------3-3--3-3--3-3---------------------------------------------|

|---------------------------------------------------------------------------|
|---------------------------------------------------------------------------|
|--------------------------------------------------------X2-----------------|
|---------------------------------------------------------------------------|
|-2----2-5-3-2------2--5-3-2-0--2--2-5-3-2----03-------------------------|
|--2----2-5-3-2------2--5-3-2-0--2-2-5-3-2----0--3-------------------------|





|---------------------------------------------------------------------------|
|---------------------------------------------------------------------------|
|4------4--7\4-4------4---7\4--4------4-----4--7\4--4-------2------5--X2|
|2------2--5\2-2------2----5\2--2--0--2-----2--5\2--2-------0------3-----|
|2------2--5\2-2------2----5\2--2--0--2-----2--5\2--2-------0------3-----|
|2------2--5\2-2------2----5\2--2--0---2-----2--5\2--2-------0------3-----|

|---------------------------------------------------------------------------|
|---------------------------------------------------------------------------|
|----2------------4------------2------------4------------2------------------|
|----0------------2------------0------------2------------0------------------|
|----0------------2------------0------------2------------0------------------|
|----0------------2------------0------------2------------0------------------|

|---------------------------------------------------------------------------|
|---------------------------------------------------------------------------|
|4-4-4-5-5-5-4-4-4-5-5-5-4-4-2-2-4-4-4-5-5-5-4-4-4-5-5-5-7-7-5-5------------|
|2-2-2-3-3-3-2-2-2-3-3-3-2-2-0-0-2-2-2-3-3-3-2-2-2-3-3-3-5-5-3-3------------|
|2-2-2-3-3-3-2-2-2-3-3-3-2-2-0-0-2-2-2-3-3-3-2-2-2-3-3-3-5-5-3-3------------|
|2-2-2-3-3-3-2-2-2-3-3-5-2-2-0-0-2-2-2-3-3-3-2-2-2-3-3-3-5-5-3-3------------|

|---------------------------------------------------------------------------|
|---------------------------------------------------------------------------|
|------5--5-------5--5--4-4-2-2-4-4-4-5-----5-4-4-4-5--5-7-7-------------|
|------3--3-------3--3--2-2-0-0-2-2-2-3-----3-2-2-2-3--3-5-5-0-0---------|
|2-2-2-3--3-2-2-2-3--3--2-2-0-0-2-2-2-3-----3-2-2-2-3--3-5-5-0-0---------|
|2-2-2-3--3-2-2-2-3--3--3-3-0-0-2-2-2-3-----3-2-2-2-3--3-5-5-0-0---------|
 ......    ....... 
|---------------------------------------------------------------------------|
|---------------------------------------------------------------------------|
|7-7---7-7----7-7----7-7----7-7-7-7----------------------------------------|
|7-7---7-7----7-7----7-7----7-7-7-7---------3------3------3----------------|
|5-5---5-5----5-5----5-5----5-5-5-5---------3------3------3----------------|
|5-5---5-5----5-5----5-5----5-5-5-5---------3------3------3----------------|

|---------------------------------------------------------------------------|
|------0-0--------------0--0--------------0--0----------------0--0---------|
|---------------------------------------------------------------------------|
|---------------------------------------------------------------------------|
|---------------------------------------------------------------------------|
|-2------------0--3--2----------0--3--2------------0--3--2------------------|


|---------------------------------------------------------------------------|
|---------------------------------------------------------------------------|
|---------------------------------------------------------------------------|
|---------------------------------------------------------------------------|
|---------------------------------------------------------------------------|
|0--3--2-----------0--3--2-----------0--3--2-----------0--3--2--------------|
       .           .......           .......           .......
								Think!
|---------------------------------------------------------------------------|
|---------------------------------------------------------------------------|
|--------------------------------------------------------X6-----------------|
|---------------------------------------------------------------------------|
|-2----2-5-3-2------2--5-3-2-0--2--2-5-3-2----03--------------2----------|
|--2----2-5-3-2------2--5-3-2-0--2-2-5-3-2----0--3--------------2----------|
					    	


| /  slide up
| \  slide down
| h  hammer-on
| p  pull-off
| ~  vibrato
| +  harmonic
| x  Mute note
| .  P.M.
=============================================================================





Comments


Popular Drowning Pool tabs & chords
Bodies Tabs
Bodies 2 Tabs
Follow 1 Tabs
Killin' Me Tabs
Killing Me Intro Tabs
Love And War 2 Tabs
More Than Worthless Tabs
Pity Tabs
Tear Away 1 Tabs
Tear Away 3 Tabs


Song lyrics



↑ Back to top | Tablatures and chords are parodies/interpretations of the original songs. You may use it for private study, scholarship, research or language learning purposes only
© 2014 AZChords.com Contact us | Privacy policy | DMCA | Add/correct tabs | Request tabs | Top 50 tabs