» » »

Drowning Pool, Think Tabs (ver.1)

Artists:  A B C D E F G H I J K L M N O P Q R S T U V W X Y Z # 

Think Tabs (ver.1)

Drowning Pool Tabs
 Rating:
4/5 (4 votes)
Think lessons Tabs too difficult? Try these video lessons and learn fast
                Tuning: B, F#, B, E, G#, C#

|---------------------------------------------------------------------------|
|------0—-0--------------0--0--------------0--0-----------------------------|
|---------------------------------------------------------------------------|
|---------------------------------------------------------------------------|
|---------------------------------------------------------------------------|
|-2------------0--3--2----------0--3--2------------0--3--2\-----------------|

|---------------------------------------------------------------------------|
|---------------------------------------------------------------------------|
|--------------------------------------------------------X2-----------------|
|---------------------------------------------------------------------------|
|-—2----2-5-3-2------2--5-3-2-0--2--2-5-3-2----0——3-------------------------|
|--2----2-5-3-2------2--5-3-2-0--2—-2-5-3-2----0--3-------------------------|

|---------------------------------------------------------------------------|
|----0----0----0----0---------0----0----0-----------------------------------|
|--------------------------------------------0—--0—--0-------X4-------------|
|---------------------------------------------------------------------------|
|--2----3----2----3---2-0---2----3----2----3—--5—--3------------------------|
|-2----3----2----3---2-0---2----3----2----3----5—--3------------------------|

|---------------------------------------------------------------------------|
|---------------------------------------------------------------------------|
|---------------------------------------------------------------------------|
|---------------------------------------------------------------------------|
|----------3-------2------2------2—--0--0-------------3-------2------2------|
|-2-2-2-2--3--3--3-2-2-2--2-3-3--2-2-0--0----2-2-2-2--3--3--3-2-2-2--2-3-3--|
 ........     ....   ...    ...    .         .......     ....   ...    ...


|---------------------------------------------------------------------------|
|---------------------------------------------------------------------------|
|---------------------------------------------------------------------------|
|----------X2—--3-3—--3-3—--3-3---------------------------------------------|
|5-5-3-3--------3-3—--3-3—--3-3---------------------------------------------|
|5-5-3-3--------3-3—--3-3—--3-3---------------------------------------------|

|---------------------------------------------------------------------------|
|---------------------------------------------------------------------------|
|--------------------------------------------------------X2-----------------|
|---------------------------------------------------------------------------|
|-—2----2-5-3-2------2--5-3-2-0--2--2-5-3-2----0——3-------------------------|
|--2----2-5-3-2------2--5-3-2-0--2—-2-5-3-2----0--3-------------------------|

|---------------------------------------------------------------------------|
|---------------------------------------------------------------------------|
|-4-4-4-5-5-5-4-4-4-5-5-5-4-4-2-2-4-4-4-5-5-5-4-4-4-5-5-5-7-7-5-5-4-4-4-5-5-|
|-2-2-2-3-3-3-2-2-2-3-3-3-2-2-0-0-2-2-2-3-3-3-2-2-2-3-3-3-5-5-3-3-2-2-2-3-3-|
|-2-2-2-3-3-3-2-2-2-3-3-3-2-2-0-0-2-2-2-3-3-3-2-2-2-3-3-3-5-5-3-3-2-2-2-3-3-|
|-2-2-2-3-3-3-2-2-2-3-3-3-2-2-0-0-2-2-2-3-3-3-2-2-2-3-3-3-5-5-3-3-2-2-2-3-3-|

|---------------------------------------------------------------------------|
|---------------------------------------------------------------------------|
|5-4-4-4-5-5-5-4-4-2-2-4-4-4-5-5-5-4----------------------------------------|
|3-2-2-2-3-3-3-2-2-0-0-2-2-2-3-3-3-2----------------------------------------|
|3-2-2-2-3-3-3-2-2-0-0-2-2-2-3-3-3-2----------------------------------------|
|3-2-2-2-3-3-3-2-2-0-0-2-2-2-3-3-3-2----------------------------------------|

And just as soon...
|---------------------------------------------------------------------------|
|---------------------------------------------------------------------------|
|-------------------------------------------------------------X4------------|
|---------------------------------------------------------------------------|
|-2----3----2----3----2—--0----2----3----2----3----5—--3--------------------|
|-2----3----2----3----2—--0----2----3----2----3----5—--3--------------------|

|---------------------------------------------------------------------------|
|---------------------------------------------------------------------------|
|---------------------------------------------------------------------------|
|---------------------------------------------------------------------------|
|----------3-------2------2------2—--0--0-------------3-------2------2------|
|-2-2-2-2--3--3--3-2-2-2--2-3-3--2-2-0--0----2-2-2-2--3--3--3-2-2-2--2-3-3--|
 ........    .....   ...    ...    .         .......     ....   ...    ...
|---------------------------------------------------------------------------|
|---------------------------------------------------------------------------|
|---------------------------------------------------------------------------|
|----------X2—--3-3—--3-3—--3-3---------------------------------------------|
|5-5-3-3--------3-3—--3-3—--3-3---------------------------------------------|
|5-5-3-3--------3-3—--3-3—--3-3---------------------------------------------|

|---------------------------------------------------------------------------|
|---------------------------------------------------------------------------|
|--------------------------------------------------------X2-----------------|
|---------------------------------------------------------------------------|
|-—2----2-5-3-2------2--5-3-2-0--2--2-5-3-2----0——3-------------------------|
|--2----2-5-3-2------2--5-3-2-0--2—-2-5-3-2----0--3-------------------------|





|---------------------------------------------------------------------------|
|---------------------------------------------------------------------------|
|4------4—--7\4-4------4—---7\4--4------4-----4—--7\4--4-------2------5—--X2|
|2------2—--5\2-2------2----5\2--2--0—--2-----2—--5\2--2-------0------3-----|
|2------2—--5\2-2------2----5\2--2--0—--2-----2—--5\2--2-------0------3-----|
|2------2—--5\2-2------2----5\2--2--0---2-----2—--5\2--2-------0------3-----|

|---------------------------------------------------------------------------|
|---------------------------------------------------------------------------|
|----2------------4------------2------------4------------2------------------|
|----0------------2------------0------------2------------0------------------|
|----0------------2------------0------------2------------0------------------|
|----0------------2------------0------------2------------0------------------|

|---------------------------------------------------------------------------|
|---------------------------------------------------------------------------|
|4-4-4-5-5-5-4-4-4-5-5-5-4-4-2-2-4-4-4-5-5-5-4-4-4-5-5-5-7-7-5-5------------|
|2-2-2-3-3-3-2-2-2-3-3-3-2-2-0-0-2-2-2-3-3-3-2-2-2-3-3-3-5-5-3-3------------|
|2-2-2-3-3-3-2-2-2-3-3-3-2-2-0-0-2-2-2-3-3-3-2-2-2-3-3-3-5-5-3-3------------|
|2-2-2-3-3-3-2-2-2-3-3-5-2-2-0-0-2-2-2-3-3-3-2-2-2-3-3-3-5-5-3-3------------|

|---------------------------------------------------------------------------|
|---------------------------------------------------------------------------|
|------5—--5-------5—--5--4-4-2-2-4-4-4-5-----5-4-4-4-5—--5-7-7-------------|
|------3—--3-------3—--3--2-2-0-0-2-2-2-3-----3-2-2-2-3—--3-5-5-0-0---------|
|2-2-2-3—--3-2-2-2-3—--3--2-2-0-0-2-2-2-3-----3-2-2-2-3—--3-5-5-0-0---------|
|2-2-2-3—--3-2-2-2-3—--3--3-3-0-0-2-2-2-3-----3-2-2-2-3—--3-5-5-0-0---------|
 ......    ....... 
|---------------------------------------------------------------------------|
|---------------------------------------------------------------------------|
|7-7—---7-7----7-7----7-7----7-7-7-7----------------------------------------|
|7-7—---7-7----7-7----7-7----7-7-7-7---------3------3------3----------------|
|5-5—---5-5----5-5----5-5----5-5-5-5---------3------3------3----------------|
|5-5—---5-5----5-5----5-5----5-5-5-5---------3------3------3----------------|

|---------------------------------------------------------------------------|
|------0—-0--------------0--0--------------0--0----------------0--0---------|
|---------------------------------------------------------------------------|
|---------------------------------------------------------------------------|
|---------------------------------------------------------------------------|
|-2------------0--3--2----------0--3--2------------0--3--2------------------|


|---------------------------------------------------------------------------|
|---------------------------------------------------------------------------|
|---------------------------------------------------------------------------|
|---------------------------------------------------------------------------|
|---------------------------------------------------------------------------|
|0--3--2-----------0--3--2-----------0--3--2-----------0--3--2--------------|
       .           .......           .......           .......
								Think!
|---------------------------------------------------------------------------|
|---------------------------------------------------------------------------|
|--------------------------------------------------------X6-----------------|
|---------------------------------------------------------------------------|
|-—2----2-5-3-2------2--5-3-2-0--2--2-5-3-2----0——3--------------2----------|
|--2----2-5-3-2------2--5-3-2-0--2—-2-5-3-2----0--3--------------2----------|
					    	


| /  slide up
| \  slide down
| h  hammer-on
| p  pull-off
| ~  vibrato
| +  harmonic
| x  Mute note
| .  P.M.
=============================================================================
            
Submit corrections

comments powered by Disqus
↑ Back to top | Drowning Pool Tabs for Think. Lyrics for acoustic guitar and electric guitar. Tablatures and chords are parodies/interpretations of the original songs. You may use it for private study, scholarship, research or language learning purposes only