» » »

Drowning Pool, The Man Without Fear Tabs (ver.1)

Artists:  A B C D E F G H I J K L M N O P Q R S T U V W X Y Z # 

The Man Without Fear Tabs (ver.1)

Drowning Pool Tabs
 Rating:
4/5 (4 votes)
The Man Without Fear lessons Tabs too difficult? Try these video lessons and learn fast
1
                Artist  - Drowning Pool Feat Rob Zombie
Song    - Man Without Fear
Tuning  - Drop D then down 1.5 steps (B, F#, B, E, G#, C#)
Aim     - Empty St1tches

Legend:
~ - Let Ring
p - Pull-Off
H - Hammer On
\ - Slide Down
. - Palm-Mute

Intro/Chorus (Lead)
B |-1-0-0-1-0-0-1-0-0-1-0-0|4-4-4-4|-4-4----|
F#|------------------------|-------|-----3-3|
B |------------------------|-------|--------|

Chorus (Rythem)
B |-1-0-0-1-0-0-1-0-0-1-0-0-|-0-4-4-4|-4-4----|
F#|-1-0-0-1-0-0-1-0-0-1-0-0-|-0-4-4-4|-4-4-3-3|
B |-1-0-0-1-0-0-1-0-0-1-0-0-|-0-4-4-4|-4-4----|

Verse (The last time don't palm mute the last 4 notes)
B |---------------------------------------------|-------------------------------|
F#|---------------------------------------------|-------------------------------|
B |1212121212\0-0-0-0-3-3-3-5-5-5-0-0-0-0-0-6-6-|0-0-0-3-3-3-5-5-5-0-0-0-0-1-1-1|
   ............ . . . . . . . . . . . . . . . .  . . . . . . . . . . . . . . . .
Pre-Chorus
B |-0--3--5--0--0-6-6-0--3--5--0--0-1-1|
F#|-0--3--5--0--0-6-6-0--3--5--0--0-1-1|
B |-0--3--5--0--0-6-6-0--3--5--0--0-1-1|

Solo (Rythem)
B |0-1-4~-0-1---|
F#|-----------3~|
B |-------------|

Solo (Lead)
C#|17-20-----18-17-14-15-14-----17-20----------------------------------------------------------22\|
G#|------20-----------------15--------20--13-15-16-15-15H16P15P13H13--16p15p13h15--16p15p13h15----|
E |-----------------------------------------------------------------------------------------------|

Break
B |-1-0-0-1-0-0-1-0-0-1-0-0|4-4-4-4|-4-4----|
F#|------------------------|-------|-----3-3|
B |------------------------|-------|--------|

Solo 2
C#|-22p20-22p20-22p20-22p20-------------------------22p20-22p20-22p20-22p20-24-24-24-24-|
G#|-------------------------22p20-22p20-22p20-22p20-------------------------------------|
E |-------------------------------------------------------------------------------------|

B |-0-3-5-0-0-6-0-3-5-0-0-0|
F#|-0-3-5-0-0-6-0-3-5-0-0-0|
B |-0-3-5-0-0-6-0-3-5-0-0-0|

B |-0-00-3-00-5-00-0-00-0-6-6-6-0-00-3-00-5-00-0-00-0-1-1-1|
F#|-0-00-3-00-5-00-0-00-0-6-6-6-0-00-3-00-5-00-0-00-0-1-1-1|
B |-0-00-3-00-5-00-0-00-0-6-6-6-0-00-3-00-5-00-0-00-0-1-1-1|
      ..   ..   ..   ..           ..   ..   ..   ..
            
Submit corrections

comments powered by Disqus
↑ Back to top | Drowning Pool Tabs for The Man Without Fear. Lyrics for acoustic guitar and electric guitar. 1 Tablatures and chords are parodies/interpretations of the original songs. You may use it for private study, scholarship, research or language learning purposes only