» » »

Tearing Away Bass tabs (ver.1)

Artists:  A B C D E F G H I J K L M N O P Q R S T U V W X Y Z # 

Tearing Away Bass tabs (ver.1)

Drowning Pool
Rating:
0/5 (0 votes)

Hard to play? Try these video lessons and learn fast.
                Drowning Pool - Tearing Away

Tuning: C#D#DG Usually its played on a five string bass

Begin:
G |--------------------------------------|
D |--------------------------------------|
F#|--------------------------------------|
C#|--0-0----0-0----0-0----0-0----0-0-0---|


G |--------------------------------------|
D |--------------------------------------|
F#|--------------------------------------|
C#|--0-0----0-0----0-0----0-0----0-1-1---|

Chorus:
G |---------------------------------------------------------|
D |---------------------------------------------------------|
F#|------------------------3--3-3--3-3--0--0---0--0---0-----|
C#|-0-0--0---0--0---0--0------------------------------------|


play this before the guitar solo:
G |----------------------|
D |----------------------|
F#|----------------------|
C#|--1-0---1-0---1-0-----| 2x
            
Hard to play? Try these video lessons and learn fast. | Correct




comments powered by Disqus
↑ Back to top | Tablatures and chords are parodies/interpretations of the original songs. You may use it for private study, scholarship, research or language learning purposes only