>
 >
Reminded

Reminded Guitar Tabs

Drowning Pool - Reminded chords, tabs, tablatures, lyrics

Guitar lessons | Add/correct | Request | Top 50 tabs Artists:  A B C D E F G H I J K L M N O P Q R S T U V W X Y Z 0-9

Reminded Guitar Tabs – Drowning Pool

CD, Sheet music, Poster

Do you like Reminded? Share with your friends now
Tabs
Song Title : Reminded
(This is and sounds 100%)
Tuning : From Top, C G C F A D

^ : Palm Mute
/ : Slide Up
\ : Slide Down

Intro
D  ----------------------------------------------------------
A  ----------------------------------------------------------
F  ----------------------------------------------------------
C  ----------------------------------------------------------  3x
G  ----------------------------------------------------------
C  ---7-7-7\5-5-5/8-8-8\5-5-5/7-7\5/7-7-7-5/8-8-8\5-5-5

2nd Intro, sort of like Chorus
D  --------------------------------                                               
A  --------------------------------                                               
F  --------------------------------   2x  
C  ---7-7-5--8-5--7-5-7-7-5-8-5   
G  ---7-7-5--8-5--7-5-7-7-5-8-5                                               
C  ---7-7-5--8-5--7-5-7-7-5-8-5                                               

D  ----------------
A  ----------------
F  -----------------
C  ---9\7/10\ 7 /5\ 7    	Do this until verse starts....
G  ---7\5/ 8 \ 5/ 7\ 5    
C  ------------------

Verse, ALL PALM MUTED EXEPT FOR THE LAST NOTE, ---> (5) <---  
D  --------------------------------------------------
A  --------------------------------------------------
F  ---------------------------------------------------
C  ---7-7-5-5--8-8-5-5--7-7-5--8-8-5-5--7-7-5-5
G  ---7-7-5-5--8-8-5-5--7-7-5--8-8-5-5--7-7-5-5  
C  ---7-7-5-5--8-8-5-5--7-7-5--8-8-5-5--7-7-5-5
                                                                            
D  -----------------------------------------------------------
A  -----------------------------------------------------------
F  -----------------------------------------------------------
C  8-8-5--7-7-5--7-7-5-5--8-8-5-5--7-7-5--8-8-5-7-7-(5)  x2                          
G  8-8-5--7-7-5--7-7-5-5--8-8-5-5--7-7-5--8-8-5-7-7-(5)                                                   
C  8-8-5--7-7-5--7-7-5-5--8-8-5-5--7-7-5--8-8-5-7-7-(5)

Chorus

D  -----------------
A  ------------------ 
F  ------------------ x 4
C  ---7-7\5/8-0-0-0
G  ---7-7\5/8-0-0-0
C  ---7-7\5/8-0-0-0

D  ------------                                             
A  ------------                                             
F  -------------                                               
C  ------------                                             
G  9\7/10\7/9\7       
C  7\5/ 8 \5/7\5      

D  --------------------
A  --------------------
F   -------------------
C  -------------------- On last time do this   (except for end of song)  
G  10-----------------
C   8------------------

Verse

Chorus

Bridge
D  -----------------------------------------
A  -----------------------------------------
F  ------------------------------------------   x3
C  555555555 / 777--000000000000-777\
G  333333333 / 555--000000000000-555\
C  -----------------------------------------

D  ---------------------
A  ---------------------
F  ---------------------
C  55555555---555 -0
G  33333333---333 -0
C  -----------^^^ -0

Intro, but only once

2nd Part Of Chorus

Verse

Chorus

Bridge

Chorus

End With
D
A
F
C  000
G  000
C  ^^^ 

PLeeZ rate this:)
thnx





Comments


Popular Drowning Pool tabs & chords
Soldiers Bass Tabs
Tear Away 2 Bass Tabs
37 Stitches Tabs
Enemy Tabs
Feel Like I Do 1 Tabs
More Than Worthless Tabs
Pity Tabs
Tear Away Tabs
The Game 1 Tabs
Reborn Ukulele


Song lyrics



↑ Back to top | Tablatures and chords are parodies/interpretations of the original songs. You may use it for private study, scholarship, research or language learning purposes only
© 2014 AZChords.com Contact us | Privacy policy | DMCA | Add/correct tabs | Request tabs | Top 50 tabs