» » »

Drowning Pool, Bodies For A Bass tabs (ver.1)

Artists:  A B C D E F G H I J K L M N O P Q R S T U V W X Y Z # 

Bodies For A Bass tabs (ver.1)

Drowning Pool Tabs
Rating:
0/5 (0 votes)
Bodies For A lessons Tabs too difficult? Try these video lessons and learn fast
                (5String)
Bodies for a 5 string by Drowning Pool

Intro / Outro
G---------------------------------------------------
D---------------------------------------------------
A---------------------------------------------------
E----222-------------------------------------------
B-11----4------------------------------------------

Verse
G---------------------------------------------------
D---------------------------------------------------
A---------------------------------------------------
E---------------------------------------------------
B-11-2-11-2-4-----------------------------------

Pre-Chorus (1)
G---------------1----------------------------------
D---------------------------------------------------
A-3--1-----3---------3--1------------------------
E---------------------------------------------------
B---------------------------------------------------

Pre-Chorus (2)
G---------------------------------------------------
D----------------1---3-3--------------------------
A----3---4-4 -------------------------------------
E---------------------------------------------------
B-1------------------------------------------------

Chorus
G---------------------------------------------------
D---------------------------------------------------
A---------------------------------------------------
E----222-------------------------------------------
B-11----4-1---------------------------------------

Bridge
G---------------------------------------------------
D---------------------------------------------------
A---------------------------------------------------
E-----2---------------------------------------------
B-44---44--1-1-4444--2222--------------------

Song Structure
Intro x4
Verse x17
Pre-Chorus (1) x4
Pre-Chorus (2) x4
Chorus x8
Verse x11
Pre-Chorus (1) x4
Pre-Chorus (2) x4
Chorus x8
Bridge x8
Verse x8
Pre-Chorus (1) x4
Pre-Chorus (2) x4
Chorus x8
Outro x4

Well that’s about it, it’s about 90% right, there are a couple of bridge and verse variations that aren’t here but this should get you through the song with no problems. Thanks to Mr Huntsman. Please Rate This Tab.
            
Submit corrections

comments powered by Disqus
↑ Back to top | Drowning Pool Bass for Bodies For A. Lyrics for acoustic guitar and electric guitar. Tablatures and chords are parodies/interpretations of the original songs. You may use it for private study, scholarship, research or language learning purposes only