» » »

Bodies Five String Bass tabs (ver.1)

Artists:  A B C D E F G H I J K L M N O P Q R S T U V W X Y Z # 

Bodies Five String Bass tabs (ver.1)

Drowning Pool
Rating:
0/5 (0 votes)

Hard to play? Try these video lessons and learn fast.
                Intro/Chorus: 
G/---------------------------------|
D/---------------------------------|
A/-3-3-3---------------------------|
E/---------2-2-2-2--------2-2------|
B/------------------1-1-1------3-2-|

Verse:
G/---------------|
D/---------------|
A/---------------|
E/---------------|
B/-1-1-1-1-1-2-3-|

Interlude:
G/----------------------------|
D/----------------------------|
A/----------------------------|
E/----------------------------|
B/-1-1-1-1-1---4-4-4h2-----1--|
            
Hard to play? Try these video lessons and learn fast. | Correct




comments powered by Disqus
↑ Back to top | Tablatures and chords are parodies/interpretations of the original songs. You may use it for private study, scholarship, research or language learning purposes only