>
 >
The Application

The Application Guitar Tabs

D.R.I. - The Application chords, tabs, tablatures, lyrics

Guitar lessons | Add/correct | Request | Top 50 tabs Artists:  A B C D E F G H I J K L M N O P Q R S T U V W X Y Z 0-9

The Application Guitar Tabs – D.R.I.

CD, Sheet music, Poster

Do you like The Application? Share with your friends now
TabsTabs v2
the application


D.R.I.





3 times
e:------------------------|
B:------------------------|
G:------------------------|
D:-2----5--7--5--8---7-5--|
A:-0----3--5--3--6---5-3--|
E:------------------------|


e:--------------------------|
B:--------------------------|
G:--------------------------|
D:-2----5--7--5--8---7-5--2-|
A:-0----3--5--3--6---5-3--0-|
E:--------------------------|

4 times
e:--------------------------------|
B:--------------------------------|
G:--------------------------------|
D:-2-2--2--5-7-5--8-8--8-8-8-7-5--|
A:-0-0--0--3-5-3--6-6--6-6-6-5-3--|
E:--------------------------------|

verse
e:--------------------------------|
B:--------------------------------|
G:--------------------------------|
D:-2-2--2--5-7-5--8-8--8-8-8-7-5--|
A:-0-0--0--3-5-3--6-6--6-6-6-5-3--|
E:--------------------------------|

2 times
e:---------------------------------------------------|
B:---------------------------------------------------|
G:---------------------------------------------------|
D:-----------8-8--8-8-8-7-5--------------------------|
A:--7-5-7-5--6-6--6-6-6-5-3--7-5-7-5--10-10-10-9-9-9-|
E:--5-3-5-3------------------5-3-5-3--8--8--8--7-7-7-|


e:----------------------------------|
B:----------------------------------|
G:----------------------------------|
D:----------------------------------|
A:--6-----6-----6-6-6-----6----6-6--|
E:--4-----4-----4-4-4-----4----4-4--|


e:------------------------|
B:------------------------|
G:------------------------|
D:-2----5--7--5--8---7-5--|
A:-0----3--5--3--6---5-3--|
E:------------------------|


e:------------------------|
B:------------------------|
G:------------------------|
D:-2----5--7--5--8---7-5--|
A:-0----3--5--3--6---5-3--|
E:------------------------|

:---------------------------------------------------------|
:---------------------------------------------------------|
:-1---4--6--4--7~~--7-6-4--1---1---4--6--4--7~~--7-6-4--1-|
:---------------------------------------------------------|
:---------------------------------------------------------|
:---------------------------------------------------------|

e:------------------------|
B:------------------------|
G:------------------------|
D:-2-------------8---7-5--|
A:-0-------------6---5-3--|
E:------------------------|

e:------------------------|
B:------------------------|
G:------------------------|
D:-2-------------8---7-5--|
A:-0-------------6---5-3--|
E:------------------------|

e:------------------------|
B:------------------------|
G:------------------------|
D:-2-------------8---7-5--|
A:-0-------------6---5-3--|
E:------------------------|

e:-------------------------------|
B:-------------------------------|
G:-------------------------------|
D:-2-------------8---8-8-8-8-8-8-|
A:-0-------------6---6-6-6-6-6-6-|
E:-------------------------------|

e:------------------------|
B:------------------------|
G:------------------------|
D:-2----5--7--5--8---7-5--|
A:-0----3--5--3--6---5-3--|
E:------------------------|

e:------------------------|
B:------------------------|
G:------------------------|
D:-2----5--7--5--8---7-5--|
A:-0----3--5--3--6---5-3--|
E:------------------------|


:---------------------------------------------------------|
:---------------------------------------------------------|
:-1---4--6--4--7~~--7-6-4--1---1---4--6--4--7~~--7-6-4--1-|
:---------------------------------------------------------|
:---------------------------------------------------------|
:---------------------------------------------------------|

e:----------------------------------|
B:----------------------------------|
G:----------------------------------|
D:-2--------------8-8--8-8-8-7-5--2-|
A:-0--------------6-6--6-6-6-5-3--0-|
E:----------------------------------|

verse
e:--------------------------------|
B:--------------------------------|
G:--------------------------------|
D:-2-2--2--5-7-5--8-8--8-8-8-7-5--|
A:-0-0--0--3-5-3--6-6--6-6-6-5-3--|
E:--------------------------------|

2 times
e:---------------------------------------------------|
B:---------------------------------------------------|
G:---------------------------------------------------|
D:-----------8-8--8-8-8-7-5--------------------------|
A:--7-5-7-5--6-6--6-6-6-5-3--7-5-7-5--10-10-10-9-9-9-|
E:--5-3-5-3------------------5-3-5-3--8--8--8--7-7-7-|


e:-------------------------|
B:-------------------------|
G:-------------------------|
D:-------------------------|
A:-6-6-6-6-6-6-6--9--11-12-|
E:-4-4-4-4-4-4-4--7--9--10-|

e:------------------------|
B:------------------------|
G:------------------------|
D:------------------------|
A:-6-6-6-6-6-6-6--9--11-9-|
E:-4-4-4-4-4-4-4--7--9--7-|

e:-------------------------|
B:-------------------------|
G:-------------------------|
D:-------------------------|
A:-6-6-6-6-6-6-6--9--11-12-|
E:-4-4-4-4-4-4-4--7--9--10-|

e:------------------------|
B:------------------------|
G:------------------------|
D:------------------------|
A:-6-6-6-6-6-6-6--9--11-9-|
E:-4-4-4-4-4-4-4--7--9--7-|

e:-------------------------|
B:-------------------------|
G:-------------------------|
D:-------------------------|
A:-6-6-6-6-6-6-6--9--11-12-|
E:-4-4-4-4-4-4-4--7--9--10-|

e:------------------------|
B:------------------------|
G:------------------------|
D:------------------------|
A:-6-6-6-6-6-6-6--9--11-9-|
E:-4-4-4-4-4-4-4--7--9--7-|

e:-------------------------|
B:-------------------------|
G:-------------------------|
D:-------------------------|
A:-6-6-6-6-6-6-6--9--11-12-|
E:-4-4-4-4-4-4-4--7--9--10-|

e:------------------------|
B:------------------------|
G:------------------------|
D:------------------------|
A:-6-6-6-6-6-6-6--9--11-9-|
E:-4-4-4-4-4-4-4--7--9--7-|

pm  .......    ......     .....
e:---------------------------------|
B:---------------------------------|
G:---------------------------------|
D:---------------------------------|
A:-6---------6---------6---------6-|
E:-4--4-4-4--4--4-4-4--4--4-4-4--4-|


verse
e:--------------------------------|
B:--------------------------------|
G:--------------------------------|
D:-2-2--2--5-7-5--8-8--8-8-8-7-5--|
A:-0-0--0--3-5-3--6-6--6-6-6-5-3--|
E:--------------------------------|


e:------------------------|
B:------------------------|
G:------------------------|
D:-2----5--7--5--8---7-5--|
A:-0----3--5--3--6---5-3--|
E:------------------------|

e:------------------------|
B:------------------------|
G:------------------------|
D:-2----5--7--5--8---7-5--|
A:-0----3--5--3--6---5-3--|
E:------------------------|

:---------------------------------------------------------|
:---------------------------------------------------------|
:-1---4--6--4--7~~--7-6-4--1---1---4--6--4--7~~--7-6-4--1-|
:---------------------------------------------------------|
:---------------------------------------------------------|
:---------------------------------------------------------|


e:------------------------|
B:------------------------|
G:------------------------|
D:-2-------------8---7-5--|
A:-0-------------6---5-3--|
E:------------------------|

e:-------------------------------|
B:-------------------------------|
G:-------------------------------|
D:-2-------------8---8-8-8-8-8-8-|
A:-0-------------6---6-6-6-6-6-6-|
E:-------------------------------|

e:------------------------|
B:------------------------|
G:------------------------|
D:-2-------------8---7-5--|
A:-0-------------6---5-3--|
E:------------------------|

e:-------------------------------|
B:-------------------------------|
G:-------------------------------|
D:-2-------------8---8-8-8-8-8-8-|
A:-0-------------6---6-6-6-6-6-6-|
E:-------------------------------|

:---------------------------------------------------------|
:---------------------------------------------------------|
:-1---4--6--4--7~~--7-6-4--1---1---4--6--4--7~~--7-6-4--1-|
:---------------------------------------------------------|
:---------------------------------------------------------|
:---------------------------------------------------------|


e:------------------------|
B:------------------------|
G:------------------------|
D:-2----5--7--5--8---7-5--|
A:-0----3--5--3--6---5-3--|
E:------------------------|

                              pick slide
e:--------------------------------------------------------------------------|
B:--------------------------------------------------------------------------|
G:--------------------------------------------------------------------------|
D:-2----5--7--5--8---8--7--5------------------------------------------------|
A:-0----3--5--3--6---6--5--3--x\------------6666666666666666666--6-6--6\----|
E:----------------------------x\------------4444444444444444444--4-4--4\----|





Comments


Popular D.R.I. tabs & chords
Acid Rain Tabs
Counter Attack Tabs
I Don't Need Society Tabs
No Sense Tabs
Shame 1 Tabs
Snap 1 Tabs
Violent Pacification 1 Tabs
Violent Pacification 2 Tabs
Worker Bee Tabs
Yes Ma'am 1 Tabs


Song lyrics



↑ Back to top | Tablatures and chords are parodies/interpretations of the original songs. You may use it for private study, scholarship, research or language learning purposes only
© 2014 AZChords.com Contact us | Privacy policy | DMCA | Add/correct tabs | Request tabs | Top 50 tabs