>
 >
Nursing Home Blues

Nursing Home Blues Guitar Tabs

D.R.I. - Nursing Home Blues chords, tabs, tablatures, lyrics

Guitar lessons | Add/correct | Request | Top 50 tabs Artists:  A B C D E F G H I J K L M N O P Q R S T U V W X Y Z 0-9

Nursing Home Blues Guitar Tabs – D.R.I.

CD, Sheet music, Poster

Do you like Nursing Home Blues? Share with your friends now
TabsTabs v2







|------------------------------------------------------------------------------------|
|------------------------------------------------------------------------------------|
|------------------------------------------------------------------------------------|
|-9-9999-10-10101010-9-9999-10-10101010-9-9999-10-10101010-9-9999-10-10101010-9-9999-|
|-7-7777-8--8-8-8-8--7-7777-8--8-8-8-8--7-7777-8--8-8-8-8--7-7777-8--8-8-8-8--7-7777-|
|-0-0000-0--0-0-0-0--0-0000-0--0-0-0-0--0-0000-0--0-0-0-0--0-0000-0--0-0-0-0--0-0000-|


|-------------------------------------------------------------------|
|-------------------------------------------------------------------|
|-------------------------------------------------------------------|
|-12-12-9-9999-10-10-10-9-9999-12-12-12-12-12--10-10-10-10-10--9--9-|
|-10-10-7-7777-8--8--8--7-7777-10-10-10-10-10--8--8--8--8--8---7--7-|
|-0--0--0-0000-0--0--0--0-0000-0--0--0--0--0---0--0--0--0--0---0--0-|

|--------------------------------------------------------------------------|
|--------------------------------------------------------------------------|
|--------------------------------------------------------------------------|
|9-9999-12-12-9-9999-10-10-10-9-9999-12-12-12-12-12--10-10-10-10-10--9--9--|
|7-7777-10-10-7-7777-8--8--8--7-7777-10-10-10-10-10--8--8--8--8--8---7--7--|
|0-0000-0--0--0-0000-0--0--0--0-0000-0--0--0--0--0---0--0--0--0--0---0--0--|

|---------------------------------------|
|---------------------------------------|
|---------------------------------------|
|---------------------------------------|
|-2-----------2-----------2-----------3-|
|-0--0-0-0-0--0--0-0-0-0--0--0-0-0-0--1-|

|-----------------------------------------------|
|-----------------------------------------------|
|-----------------------------------------------|
|-------------------------------------12-12-12--|
|-2-----------2-----------2-----------10-10-10--|
|-0--0-0-0-0--0--0-0-0-0--0--0-0-0-0------------|

|---------------------------------------|
|---------------------------------------|
|---------------------------------------|
|---------------------------------------|
|-2-----------2-----------2-----------3-|
|-0--0-0-0-0--0--0-0-0-0--0--0-0-0-0--1-|

|-----------------------------------------------|
|-----------------------------------------------|
|-----------------------------------------------|
|-------------------------------------12-12-12--|
|-2-----------2-----------2-----------10-10-10--|
|-0--0-0-0-0--0--0-0-0-0--0--0-0-0-0------------|


|---------------------------------|
|---------------------------------|
|---------------------------------|
|---------------------------5-5-5-|
|-2-----------5--2-2-2-2-2--3-3-3-|
|-0--0-0-0-0----------------------|

|---------------------------------|
|---------------------------------|
|---------------------------------|
|---------------------------5-5-5-|
|-2-----------5--2-2-2------3-3-3-|
|-0--0-0-0-0----------------------|

verse
|---------------------------------|
|---------------------------------|
|---------------------------------|
|---------------------------5-5-5-|
|-2-----------5--2-2-2-2-2--3-3-3-|
|-0--0-0-0-0----------------------|

|------------------------------------------------------------------------------------------|
|------------------------------------------------------------------------------------------|
|------------------------------------------------------------------------------------------|
|------------------------------------------7--5--4------------------------------------5-4-2|
|-7--7-7-7-7--7--7-7-7-7--5--5-5-5-5--5-5--5--3--2--4--4-4-4-4--4--4-4-4-4--5-5-5-5-5-3-2-0|
|-5--5-5-5-5--5--5-5-5-5--3--3-3-3-3--3-3-----------2--2-2-2-2--2--2-2-2-2--3-3-3-3-3------|


|------------------------------------------------------------------------------------------|
|------------------------------------------------------------------------------------------|
|------------------------------------------------------------------------------------------|
|------------------------------------------7--5--4------------------------------------5-4-2|
|-7--7-7-7-7--7--7-7-7-7--5--5-5-5-5--5-5--5--3--2--4--4-4-4-4--4--4-4-4-4--5-5-5-5-5-3-2-0|
|-5--5-5-5-5--5--5-5-5-5--3--3-3-3-3--3-3-----------2--2-2-2-2--2--2-2-2-2--3-3-3-3-3------|


|------------------------------------------------------------------------------------|
|------------------------------------------------------------------------------------|
|------------------------------------------------------------------------------------|
|------------------------------------------------------------------------------------|
|-9--9-9-9-9--9--9-9-9-9--7--7-7-7-7--7--7-7-7-7--4--4-4-4-4--4--4-4-4-4--5--5-5-5-5-|
|-7--7-7-7-7--7--7-7-7-7--5--5-5-5-5--5--5-5-5-5--2--2-2-2-2--2--2-2-2-2--3--3-3-3-3-|

|----------------------------------------------------------------------------|
|----------------------------------------------------------------------------|
|----------------------------------------------------------------------------|
|----------------------------------------------------------------------------|
|-9--9-9-9-9--9--9-9-9-9--7--7-7-7-7--7--7-7-7-7--5--5-5-5-5--5--5-5-5-5--4--|
|-7--7-7-7-7--7--7-7-7-7--5--5-5-5-5--5--5-5-5-5--3--3-3-3-3--3--3-3-3-3--2--|

|------------------------------------------------------------------------------------------|
|------------------------------------------------------------------------------------------|
|------------------------------------------------------------------------------------------|
|------------------------------------------7--5--4------------------------------------5-4-2|
|-7--7-7-7-7--7--7-7-7-7--5--5-5-5-5--5-5--5--3--2--4--4-4-4-4--4--4-4-4-4--5-5-5-5-5-3-2-0|
|-5--5-5-5-5--5--5-5-5-5--3--3-3-3-3--3-3-----------2--2-2-2-2--2--2-2-2-2--3-3-3-3-3------|

|--------------------------------------------------------------------------|
|--------------------------------------------------------------------------|
|--------------------------------------------------------------------------|
|9-9999-12-12-9-9999-10-10-10-9-9999-12-12-12-12-12--10-10-10-10-10--9--9--|
|7-7777-10-10-7-7777-8--8--8--7-7777-10-10-10-10-10--8--8--8--8--8---7--7--|
|0-0000-0--0--0-0000-0--0--0--0-0000-0--0--0--0--0---0--0--0--0--0---0--0--|

|--------------------------------------------------------------------------|
|--------------------------------------------------------------------------|
|--------------------------------------------------------------------------|
|9-9999-12-12-9-9999-10-10-10-9-9999-12-12-12-12-12--10-10-10-10-10--9--9--|
|7-7777-10-10-7-7777-8--8--8--7-7777-10-10-10-10-10--8--8--8--8--8---7--7--|
|0-0000-0--0--0-0000-0--0--0--0-0000-0--0--0--0--0---0--0--0--0--0---0--0--|

|---------------------------------------|
|---------------------------------------|
|---------------------------------------|
|---------------------------------------|
|-2-----------2-----------2-----------3-|
|-0--0-0-0-0--0--0-0-0-0--0--0-0-0-0--1-|

|-----------------------------------------------|
|-----------------------------------------------|
|-----------------------------------------------|
|-------------------------------------12-12-12--|
|-2-----------2-----------2-----------10-10-10--|
|-0--0-0-0-0--0--0-0-0-0--0--0-0-0-0------------|

|---------------------------------------|
|---------------------------------------|
|---------------------------------------|
|---------------------------------------|
|-2-----------2-----------2-----------3-|
|-0--0-0-0-0--0--0-0-0-0--0--0-0-0-0--1-|

|-----------------------------------------------|
|-----------------------------------------------|
|-----------------------------------------------|
|-------------------------------------12-12-12--|
|-2-----------2-----------2-----------10-10-10--|
|-0--0-0-0-0--0--0-0-0-0--0--0-0-0-0------------|

|---------------------------------|
|---------------------------------|
|---------------------------------|
|---------------------------5-5-5-|
|-2-----------5--2-2-2-2-2--3-3-3-|
|-0--0-0-0-0----------------------|

|---------------------------------|
|---------------------------------|
|---------------------------------|
|---------------------------5-5-5-|
|-2-----------5--2-2-2------3-3-3-|
|-0--0-0-0-0----------------------|

verse
|---------------------------------|
|---------------------------------|
|---------------------------------|
|---------------------------5-5-5-|
|-2-----------5--2-2-2-2-2--3-3-3-|
|-0--0-0-0-0----------------------|


|------------------------------------------------------------------------------------------|
|------------------------------------------------------------------------------------------|
|------------------------------------------------------------------------------------------|
|------------------------------------------7--5--4------------------------------------5-4-2|
|-7--7-7-7-7--7--7-7-7-7--5--5-5-5-5--5-5--5--3--2--4--4-4-4-4--4--4-4-4-4--5-5-5-5-5-3-2-0|
|-5--5-5-5-5--5--5-5-5-5--3--3-3-3-3--3-3-----------2--2-2-2-2--2--2-2-2-2--3-3-3-3-3------|

|---------------------------------|
|---------------------------------|
|---------------------------------|
|---------------------------5-5-5-|
|-2-----------5--2-2-2-2-2--3-3-3-|
|-0--0-0-0-0----------------------|

|---------------------------------|
|---------------------------------|
|---------------------------------|
|---------------------------5-5-5-|
|-2-----------5--2-2-2------3-3-3-|
|-0--0-0-0-0----------------------|

|------------------------------------------------------------------------------------|
|------------------------------------------------------------------------------------|
|------------------------------------------------------------------------------------|
|------------------------------------------------------------------------------------|
|-9--9-9-9-9--9--9-9-9-9--7--7-7-7-7--7--7-7-7-7--4--4-4-4-4--4--4-4-4-4--5--5-5-5-5-|
|-7--7-7-7-7--7--7-7-7-7--5--5-5-5-5--5--5-5-5-5--2--2-2-2-2--2--2-2-2-2--3--3-3-3-3-|

verse
|---------------------------------|
|---------------------------------|
|---------------------------------|
|---------------------------5-5-5-|
|-2-----------5--2-2-2-2-2--3-3-3-|
|-0--0-0-0-0----------------------|

|------------------------------------------------------------------------------------------|
|------------------------------------------------------------------------------------------|
|------------------------------------------------------------------------------------------|
|------------------------------------------7--5--4------------------------------------5-4-2|
|-7--7-7-7-7--7--7-7-7-7--5--5-5-5-5--5-5--5--3--2--4--4-4-4-4--4--4-4-4-4--5-5-5-5-5-3-2-0|
|-5--5-5-5-5--5--5-5-5-5--3--3-3-3-3--3-3-----------2--2-2-2-2--2--2-2-2-2--3-3-3-3-3------|

|------------------------------------------------------------------------------------------|
|------------------------------------------------------------------------------------------|
|------------------------------------------------------------------------------------------|
|------------------------------------------7--5--4------------------------------------5-4-2|
|-7--7-7-7-7--7--7-7-7-7--5--5-5-5-5--5-5--5--3--2--4--4-4-4-4--4--4-4-4-4--5-5-5-5-5-3-2-0|
|-5--5-5-5-5--5--5-5-5-5--3--3-3-3-3--3-3-----------2--2-2-2-2--2--2-2-2-2--3-3-3-3-3------|

|--------------------------------------------------------------------------|
|--------------------------------------------------------------------------|
|--------------------------------------------------------------------------|
|9-9999-12-12-9-9999-10-10-10-9-9999-12-12-12-12-12--10-10-10-10-10--9--9--|
|7-7777-10-10-7-7777-8--8--8--7-7777-10-10-10-10-10--8--8--8--8--8---7--7--|
|0-0000-0--0--0-0000-0--0--0--0-0000-0--0--0--0--0---0--0--0--0--0---0--0--|

|--------------------------------------------------------------------------|
|--------------------------------------------------------------------------|
|--------------------------------------------------------------------------|
|9-9999-12-12-9-9999-10-10-10-9-9999-12-12-12-12-12--10-10-10-10-10--9--9--|
|7-7777-10-10-7-7777-8--8--8--7-7777-10-10-10-10-10--8--8--8--8--8---7--7--|
|0-0000-0--0--0-0000-0--0--0--0-0000-0--0--0--0--0---0--0--0--0--0---0--0--|


|---------------------------------------|
|---------------------------------------|
|---------------------------------------|
|---------------------------------------|
|-2-----------2-----------2-----------3-|
|-0--0-0-0-0--0--0-0-0-0--0--0-0-0-0--1-|

|-----------------------------------------------|
|-----------------------------------------------|
|-----------------------------------------------|
|-------------------------------------12-12-12--|
|-2-----------2-----------2-----------10-10-10--|
|-0--0-0-0-0--0--0-0-0-0--0--0-0-0-0------------|

|---------------------------------------|
|---------------------------------------|
|---------------------------------------|
|---------------------------------------|
|-2-----------2-----------2-----------3-|
|-0--0-0-0-0--0--0-0-0-0--0--0-0-0-0--1-|

|-----------------------------------------------|
|-----------------------------------------------|
|-----------------------------------------------|
|-------------------------------------12-12-12--|
|-2-----------2-----------2-----------10-10-10--|
|-0--0-0-0-0--0--0-0-0-0--0--0-0-0-0------------|

solo
|--------------------------------------------------------------------------------------|
|--------------------------------------------------------------------------------------|
|-14b-14b--14b-14b--12h14p12-----------------------------------------------------12----|
|----------------------------14p12-14p12----12-14--------------12----12-14-12-14----14-|
|----------------------------------------14--------12-14-12-14----14-------------------|
|--------------------------------------------------------------------------------------|

                                 2 times           
|-------------------------------|----------------|---------------------------------------|
|--------------12----12-15b-15b-|----------------|---------------------------------------|
|-12-14-12-14-----14------------|-14-14-14p12----|-----------------------------4p2---2---|
|-------------------------------|-------------14-|-14-14-14p12----12---------------4---4-|
|-------------------------------|----------------|-------------14----14-12-14------------|
|-------------------------------|----------------|---------------------------------------|

                             bar
|-------------------------------|----------------------------------------------------------|
|-------------------------------|-------------------------------------------------12----12-|
|-------------------------------|-------------------------------12----12-14-12-14----14----|
|2-4-2---2----------------------|-------------12----12-14-12-14----14----------------------|
|------4---4p2-4-2---2----------|-12-14-12-14----14----------------------------------------|
|------------------4---4-2--0---|----------------------------------------------------------|

          repeat                                             
|-----|-------------|-12--15-15bp12-----------------------------------------------|
|-15~-|-15-15p12----|---------------15bp12-------------12-------------------------|
|-14~-|----------14-|----------------------14bp12------12--3b--3b--3b--3b--3b--3b-|
|-----|-------------|-----------------------------14~~----------------------------|
|-----|-------------|-------------------------------------------------------------|
|-----|-------------|-------------------------------------------------------------|

|---------------------------------------------------------------------12-12---------12-12-|
|--------------------5-5---------5-5--------5--8--10-12--15b------12b-12-12-----12b-12-12-|
|-2--2h4p2---2-------4-4---------4-4--------4--7--9--11--14b--14b-14b-------14b-14b-------|
|----------4---4--2--2-2--2-2-2-------2-2-2-----------------------------------------------|
|-----------------------------------------------------------------------------------------|
|-----------------------------------------------------------------------------------------|

|-----------------------12-15-15b-------------------------------------------------------|
|----12-15p12-----12-15-----------------------------------------------------------------|
|-14-----------14--------------------------------12hh14p12-12---------------------------|
|-----------------------------------12hh14p12h14--------------14-12h14p12--12hh14p12h14-|
|---------------------------------------------------------------------------------------|
|---------------------------------------------------------------------------------------|

|-----------------------------------------------------------------------------------------|
|-----------------------------------------------------------------------------------------|
|-12hh14p12-12---------------------------12hh14p12-12-------------------------------------|
|--------------14-12h14p12--12hh14p12h14--------------14-12h14p12----12-------------------|
|-----------------------------------------------------------------14----14-12h14p12----12-|
|-----------------------------------------------------------------------------------15----|
                    bar
|-------------------------------------|
|-------------------------------------|
|-------------------------------------|
|-------------------------------------|
|-------------------------------------|
|15-12h14-12\----0--------------------|


|---------------------------------------|
|---------------------------------------|
|---------------------------------------|
|---------------------------------------|
|-2-----------2-----------2-----------3-|
|-0--0-0-0-0--0--0-0-0-0--0--0-0-0-0--1-|

|-----------------------------------------------|
|-----------------------------------------------|
|-----------------------------------------------|
|-------------------------------------12-12-12--|
|-2-----------2-----------2-----------10-10-10--|
|-0--0-0-0-0--0--0-0-0-0--0--0-0-0-0------------|





Comments


Popular D.R.I. tabs & chords
Busted Again Tabs
Give My Texas Back 1 Tabs
God Is Broke 1 Tabs
I Don't Need Society 1 Tabs
Mad Man Tabs
No Sense Tabs
Nursing Home Blues 1 Tabs
Snap Tabs
Stupid, Stupid War 1 Tabs
The Explorer 1 Tabs


Song lyrics



↑ Back to top | Tablatures and chords are parodies/interpretations of the original songs. You may use it for private study, scholarship, research or language learning purposes only
© 2014 AZChords.com Contact us | Privacy policy | DMCA | Add/correct tabs | Request tabs | Top 50 tabs