>
 >
Karma 1

Karma 1 Guitar Tabs

D.R.I. - Karma 1 chords, tabs, tablatures, lyrics

Guitar lessons | Add/correct | Request | Top 50 tabs Artists:  A B C D E F G H I J K L M N O P Q R S T U V W X Y Z 0-9

Karma 1 Guitar Tabs – D.R.I.

CD, Sheet music, Poster

Do you like Karma 1? Share with your friends now
TabsTabs v2
karma


D.R.I.






e:-----------------------------------------------------|
B:-----------------------------------------------------|
G:-----------------------------------------------------|
D:-----------------------------------------------------|
A:-9--------------------------7------------5--10--5--9-|
E:-7-7-7-7-7-7-7-7-7-7-7-7-7--5-5-5-5-5-5--3--8---3--7-|

e:-----------------------------------------------------|
B:-----------------------------------------------------|
G:-----------------------------------------------------|
D:-----------------------------------------------------|
A:-9--------------------------7------------5--10--5--9-|
E:-7-7-7-7-7-7-7-7-7-7-7-7-7--5-5-5-5-5-5--3--8---3--7-|

verse
e:-----------------------------------------------------|
B:-----------------------------------------------------|
G:-----------------------------------------------------|
D:-----------------------------------------------------|
A:-9--------------------------7------------5--10--5--9-|
E:-7-7-7-7-7-7-7-7-7-7-7-7-7--5-5-5-5-5-5--3--8---3--7-|

e:-----------------------------------------------------|
B:-----------------------------------------------------|
G:-----------------------------------------------------|
D:-----------------------------------------------------|
A:-9--------------------------7------------5--10--5--9-|
E:-7-7-7-7-7-7-7-7-7-7-7-7-7--5-5-5-5-5-5--3--8---3--7-|

e:--------------------------------------------------------|
B:--------------------------------------------------------|
G:--------------------------------------------------------|
D:--------------------------------------------------------|
A:-9--------------------------7------------5--10--5-6-7-8-|
E:-7-7-7-7-7-7-7-7-7-7-7-7-7--5-5-5-5-5-5--3--8---3-4-5-6-|


e:-----------------------------------------------------------------------------------------|
B:-----------------------------------------------------------------------------------------|
G:-----------------------------------------------------------------------------------------|
D:-----------------------------------------------------------------------------------------|
A:-10-10-10-10-10-10-10-10-10-10--9-9-9-9-9-9-9-9-9-9--7-7-7-7-7-7-7-7-7-7--9-9-9-9-9-9-9-9|
E:-8--8--8--8--8--8--8--8--8--8---7-7-7-7-7-7-7-7-7-7--5-5-5-5-5-5-5-5-5-5--7-7-7-7-7-7-7-7|

e:-----------------------------------------------------------------------------------------|
B:-----------------------------------------------------------------------------------------|
G:-----------------------------------------------------------------------------------------|
D:-7-7-7-7-7--10-10-10-10-10--2-2-2-2-2--10-10-10-10-10--5-5-5-5-5--4-4-4-4-4--7-7-7--6-6-6|
A:-5-5-5-5-5--8--8--8--8--8---0-0-0-0-0--8--8--8--8--8---3-3-3-3-3--2-2-2-2-2--5-5-5--4-4-4|
E:-----------------------------------------------------------------------------------------|

:------------|
:------------|
:------------|
:-5-5-5--4---|
:-3-3-3--2---|
:------------|


e:---------------------------------------------|
B:---------------------------------------------|
G:---------------------------------------------|
D:---------------------------------------------|
A:-4-4---------4-4---------4-4---------4-5-7-5-|
E:-2-2--2-2-2--2-2--2-2-2--2-2--2-2-2--2-3-5-3-|

e:---------------------------------------------|
B:---------------------------------------------|
G:---------------------------------------------|
D:---------------------------------------------|
A:-4-4---------4-4---------4-4---------4-5-7-5-|
E:-2-2--2-2-2--2-2--2-2-2--2-2--2-2-2--2-3-5-3-|

e:---------------------------------------------|
B:---------------------------------------------|
G:---------------------------------------------|
D:---------------------------------------------|
A:-4-4---------4-4---------4-4---------4-5-7-5-|
E:-2-2--2-2-2--2-2--2-2-2--2-2--2-2-2--2-3-5-3-|

e:---------------------------------------------|
B:---------------------------------------------|
G:---------------------------------------------|
D:---------------------------------------------|
A:-4-4---------4-4---------4-4---------4-5-7-5-|
E:-2-2--2-2-2--2-2--2-2-2--2-2--2-2-2--2-3-5-3-|

e:-----------------------------------------------------------------------------------------|
B:-----------------------------------------------------------------------------------------|
G:-----------------------------------------------------------------------------------------|
D:-7-7-7-7-7--10-10-10-10-10--2-2-2-2-2--10-10-10-10-10--5-5-5-5-5--4-4-4-4-4--7-7-7--5-5-5|
A:-5-5-5-5-5--8--8--8--8--8---0-0-0-0-0--8--8--8--8--8---3-3-3-3-3--2-2-2-2-2--5-5-5--3-3-3|
E:-----------------------------------------------------------------------------------------|


e:--------------------------|
B:--------------------------|
G:--------------------------|
D:--------------------------|
A:-5-5-5-5--8-8-8--3-3-3--5-|
E:-3-3-3-3--6-6-6--1-1-1--3-|

e:--------------------------|
B:--------------------------|
G:--------------------------|
D:--------------------------|
A:-5-5-5-5--8-8-8--3-3-3--5-|
E:-3-3-3-3--6-6-6--1-1-1--3-|

e:--------------------------|
B:--------------------------|
G:--------------------------|
D:--------------------------|
A:-5-5-5-5--8-8-8--3-3-3--5-|
E:-3-3-3-3--6-6-6--1-1-1--3-|

e:----------------------------|
B:----------------------------|
G:----------------------------|
D:----------------------------|
A:-5-5-5-5--8-8-8--3-3-3----5-|
E:-3-3-3-3--6-6-6--1-1-1----3-|

:----------------------------------------|
:----------------------------------------|
:----------------------------------------|
:----------------------------------------|
:-5-5-5-5--6--6-6-6--3-3-3-3-3-----------|
:-3-3-3-3--4--4-4-4--1-1-1-1-1--2B~~~~~~-|

:------------------------------------|
:------------------------------------|
:------------------------------------|
:----------------------------------4-|
:-5-5-5-5--6--6-6-6--3-3-3-3-3--4--2-|
:-3-3-3-3--4--4-4-4--1-1-1-1-1--2----|

:-----------------------------------------|
:-----------------------------------------|
:-----------------------------------------|
:-----------------------------------------|
:-5-5-5-5--6--6-6-6--3-3-3-3-3--4-4-4-4-4-|
:-3-3-3-3--4--4-4-4--1-1-1-1-1--2-2-2-2-2-|


:-----------------------------------------|
:-----------------------------------------|
:-----------------------------------------|
:-----------------------------------------|
:-5-5-5-5--6--6-6-6--3-3-3-3-3--4-4-4-4-4-|
:-3-3-3-3--4--4-4-4--1-1-1-1-1--2-2-2-2-2-|


:-----------------------------------------|
:-----------------------------------------|
:-----------------------------------------|
:-----------------------------------------|
:-5-5-5-5--6--6-6-6--3-3-3-3-3--4-4-4-4-4-|
:-3-3-3-3--4--4-4-4--1-1-1-1-1--2-2-2-2-2-|

:-----------------------------------|
:-----------------------------------|
:-----------------------------------|
:-----------------------------------|
:-5-5-5-5--6--6-6-6--3-3-3-3-3--4---|
:-3-3-3-3--4--4-4-4--1-1-1-1-1--2---|


e:----------------------|
B:----------------------|
G:----------------------|
D:----------------------|
A:-5-5--8-8--3-3--x--5--|
E:-3-3--6-6--1-1--x--3--|

e:----------------------|
B:----------------------|
G:----------------------|
D:----------------------|
A:-5-5--8-8--3-3--x--5--|
E:-3-3--6-6--1-1--x--3--|

e:--------------------------|
B:--------------------------|
G:--------------------------|
D:--------------------------|
A:-5-5-5-5--8-8-8--3-3-3--5-|
E:-3-3-3-3--6-6-6--1-1-1--3-|

e:--------------------------|
B:--------------------------|
G:--------------------------|
D:--------------------------|
A:-5-5-5-5--8-8-8--3-3-3--5-|
E:-3-3-3-3--6-6-6--1-1-1--3-|

e:--------------------------|
B:--------------------------|
G:--------------------------|
D:--------------------------|
A:-5-5-5-5--8-8-8--3-3-3--5-|
E:-3-3-3-3--6-6-6--1-1-1--3-|

e:----------------------------|
B:----------------------------|
G:----------------------------|
D:----------------------------|
A:-5-5-5-5--8-8-8--3-3-3----5-|
E:-3-3-3-3--6-6-6--1-1-1----3-|


:----------------------------------------|
:----------------------------------------|
:----------------------------------------|
:----------------------------------------|
:-5-5-5-5--6--6-6-6--3-3-3-3-3-----------|
:-3-3-3-3--4--4-4-4--1-1-1-1-1--2B~~~~~~-|

:------------------------------------|
:------------------------------------|
:------------------------------------|
:----------------------------------4-|
:-5-5-5-5--6--6-6-6--3-3-3-3-3--4--2-|
:-3-3-3-3--4--4-4-4--1-1-1-1-1--2----|

:-----------------------------------------|
:-----------------------------------------|
:-----------------------------------------|
:-----------------------------------------|
:-5-5-5-5--6--6-6-6--3-3-3-3-3--4-4-4-4-4-|
:-3-3-3-3--4--4-4-4--1-1-1-1-1--2-2-2-2-2-|


:-----------------------------------------|
:-----------------------------------------|
:-----------------------------------------|
:-----------------------------------------|
:-5-5-5-5--6--6-6-6--3-3-3-3-3--4-4-4-4-4-|
:-3-3-3-3--4--4-4-4--1-1-1-1-1--2-2-2-2-2-|


:-----------------------------------------|
:-----------------------------------------|
:-----------------------------------------|
:-----------------------------------------|
:-5-5-5-5--6--6-6-6--3-3-3-3-3--4-4-4-4-4-|
:-3-3-3-3--4--4-4-4--1-1-1-1-1--2-2-2-2-2-|

:-------------------------------------------|
:-------------------------------------------|
:-------------------------------------------|
:-----------------------------------------4-|
:-5-5-5-5--6--6-6-6--3-3-3-3-3--4--4------2-|
:-3-3-3-3--4--4-4-4--1-1-1-1-1--2--2----2---|





Comments


Popular D.R.I. tabs & chords
Acid Rain 1 Tabs
Bail Out 1 Tabs
Beneath The Wheel Tabs
Busted Again Tabs
Counter Attack Tabs
Counter Attack 1 Tabs
Dirty Rotten Imbeciles 1 Tabs
Happy Happy Joy Joy 1 Tabs
I Don't Need Society Tabs
On My Way Home 1 Tabs


Song lyrics



↑ Back to top | Tablatures and chords are parodies/interpretations of the original songs. You may use it for private study, scholarship, research or language learning purposes only
© 2014 AZChords.com Contact us | Privacy policy | DMCA | Add/correct tabs | Request tabs | Top 50 tabs