» » »

D.R.I., Happy Happy Joy Joy Tabs (ver.1)

Artists:  A B C D E F G H I J K L M N O P Q R S T U V W X Y Z # 

Happy Happy Joy Joy Tabs (ver.1)

D.R.I. Tabs
 Rating:
4/5 (4 votes)
Happy Happy Joy Joy lessons Tabs too difficult? Try these video lessons and learn fast
1
                happy happy joy joy


DRI 






e:--------1-------------------1----|
B:-------0-------------------0-----|
G:------0-------------------0------|
D:-----0-------------------0-------|
A:----2-------------------2--------|
E:---3-------------------3---------|


e:---2----2----------------|
B:---3----3--3-3----3-3----|
G:---2----2--2--2---2--2---|
D:-0---------0---0--0---0--|
A:------0----0----0-0----0-|
E:-------------------------|

e:------------|
B:------------|
G:------------|
D:------------|
A:-0--2--4----|
E:------------|

    happy       happy        joy         joy         happy       happy        joy 
:----2-2---------2-2---------2-2---------2-2----------0-0---------0-0---------0-0-------|
:---3---3-------3---3-------3---3-------3---3--------2---2-------2---2-------2----2-----|
:--2-----2-----2-----2-----2-----2-----2-----2------2-----2-----2-----2-----2------2----|
:-0-------0---0-------0---0-------0---0-------0----2-------2---2-------2---2--------2---|
:0---------0-0---------0-0---------0-0---------0--0---------0-0---------0-0-----------0-|
:---------------------------------------------------------------------------------------|

        joy        happy      happy        joy         joy
e:-----0-0---------0-0---------0-0---------0-0---------0-0---------0---|
B:----2---2-------2---2-------2---2-------2---2-------2---2-------2----|
G:---2-----2-----2-----2-----2-----2-----2-----2-----2-----2-----2-----|
D:--2-------2---2-------2---2-------2---2-------2---2-------2---2------|
A:-0---------0-0---------0-0---------0-0---------0-0---------0-0-------|
E:---------------------------------------------------------------------|

    happy       happy        joy         joy         happy       happy        joy 
:----2-2---------2-2---------2-2---------2-2----------2-2---------2-2---------2-2-------|
:---3---3-------3---3-------3---3-------3---3--------3---3-------3---3-------3----3-----|
:--2-----2-----2-----2-----2-----2-----2-----2------2-----2-----2-----2-----2------2----|
:-0-------0---0-------0---0-------0---0-------0----0-------0---0-------0---0--------0---|
:0---------0-0---------0-0---------0-0---------0--0---------0-0---------0-0-----------0-|
:---------------------------------------------------------------------------------------|

       joy                       happy         happy         joy           joy
e:-----2-2---------2-3-----------3-3-----------3-3-----------3-3-----------3-3------|
B:----3---3-------3---3---------3---3---------3---3---------3---3---------0---3-----|
G:---2-----2-----2-----0-------0-----0-------0-----0-------0-----0-------0-----0----|
D:--0-------0---0-------0-----0-------0-----0-------0-----0-------0-----0-------0---|
A:-0---------0-0---------2---2---------2---2---------2---2---------2---2---------2--|
E:------------------------3-3-----------3-3-----------3-3-----------3-3-----------3-|

       happy      happy        joy         joy             joy  joy
e:-----0-0---------0-0---------0-0---------0-0---------0----0---2---------------|
B:----2---2-------2---2-------2---2-------2---2-------2-----0---3---------------|
G:---2-----2-----2-----2-----2-----2-----2-----2-----2------1---2---------------|
D:--2-------2---2-------2---2-------2---2-------2---2-------2---0---------------|
A:-0---------0-0---------0-0---------0-0---------0-0--------2-------------------|
E:----------------------------------------------------------0-------4-3-4-5-4---|

e:---2----2----------------|
B:---3----3--3-3----3-3----|
G:---2----2--2--2---2--2---|
D:-0---------0---0--0---0--|
A:------0----0----0-0----0-|
E:-------------------------|

:-----------------------------------------|
:-----------------------------------------|
:-----------------------------------------|
:----7---4----7---4----7---4----7---4-----|
:--5---5----5---5----5---5----5---5-------|
:-----------------------------------------|

e:------------|
B:------------|
G:------------|
D:------------|
A:-0--2--4----|
E:------------|


    happy       happy        joy         joy         happy       happy        joy 
:----2-2---------2-2---------2-2---------2-2----------0-0---------0-0---------0-0-------|
:---3---3-------3---3-------3---3-------3---3--------2---2-------2---2-------2----2-----|
:--2-----2-----2-----2-----2-----2-----2-----2------2-----2-----2-----2-----2------2----|
:-0-------0---0-------0---0-------0---0-------0----2-------2---2-------2---2--------2---|
:0---------0-0---------0-0---------0-0---------0--0---------0-0---------0-0-----------0-|
:---------------------------------------------------------------------------------------|

        joy        happy      happy        joy         joy
e:-----0-0---------0-0---------0-0---------0-0---------0-0---------0---|
B:----2---2-------2---2-------2---2-------2---2-------2---2-------2----|
G:---2-----2-----2-----2-----2-----2-----2-----2-----2-----2-----2-----|
D:--2-------2---2-------2---2-------2---2-------2---2-------2---2------|
A:-0---------0-0---------0-0---------0-0---------0-0---------0-0-------|
E:---------------------------------------------------------------------|

    happy       happy        joy         joy         happy       happy        joy 
:----2-2---------2-2---------2-2---------2-2----------2-2---------2-2---------2-2-------|
:---3---3-------3---3-------3---3-------3---3--------3---3-------3---3-------3----3-----|
:--2-----2-----2-----2-----2-----2-----2-----2------2-----2-----2-----2-----2------2----|
:-0-------0---0-------0---0-------0---0-------0----0-------0---0-------0---0--------0---|
:0---------0-0---------0-0---------0-0---------0--0---------0-0---------0-0-----------0-|
:---------------------------------------------------------------------------------------|

       joy                       happy         happy         joy           joy
e:-----2-2---------2-3-----------3-3-----------3-3-----------3-3-----------3-3------|
B:----3---3-------3---3---------3---3---------3---3---------3---3---------0---3-----|
G:---2-----2-----2-----0-------0-----0-------0-----0-------0-----0-------0-----0----|
D:--0-------0---0-------0-----0-------0-----0-------0-----0-------0-----0-------0---|
A:-0---------0-0---------2---2---------2---2---------2---2---------2---2---------2--|
E:------------------------3-3-----------3-3-----------3-3-----------3-3-----------3-|

       happy      happy        joy         joy             joy  joy
e:-----0-0---------0-0---------0-0---------0-0---------0----0---2---------------|
B:----2---2-------2---2-------2---2-------2---2-------2-----0---3---------------|
G:---2-----2-----2-----2-----2-----2-----2-----2-----2------1---2---------------|
D:--2-------2---2-------2---2-------2---2-------2---2-------2---0---------------|
A:-0---------0-0---------0-0---------0-0---------0-0--------2-------------------|
E:----------------------------------------------------------0-------4-3-4-5-4---|


e:---2----2----------------|
B:---3----3--3-3----3-3----|
G:---2----2--2--2---2--2---|
D:-0---------0---0--0---0--|
A:------0----0----0-0----0-|
E:-------------------------|

e:------------|
B:------------|
G:------------|
D:------------|
A:-0--2--4----|
E:------------|

    happy       happy        joy         joy         happy       happy        joy 
:----2-2---------2-2---------2-2---------2-2----------0-0---------0-0---------0-0-------|
:---3---3-------3---3-------3---3-------3---3--------2---2-------2---2-------2----2-----|
:--2-----2-----2-----2-----2-----2-----2-----2------2-----2-----2-----2-----2------2----|
:-0-------0---0-------0---0-------0---0-------0----2-------2---2-------2---2--------2---|
:0---------0-0---------0-0---------0-0---------0--0---------0-0---------0-0-----------0-|
:---------------------------------------------------------------------------------------|

        joy        happy      happy        joy         joy
e:-----0-0---------0-0---------0-0---------0-0---------0-0---------0---|
B:----2---2-------2---2-------2---2-------2---2-------2---2-------2----|
G:---2-----2-----2-----2-----2-----2-----2-----2-----2-----2-----2-----|
D:--2-------2---2-------2---2-------2---2-------2---2-------2---2------|
A:-0---------0-0---------0-0---------0-0---------0-0---------0-0-------|
E:---------------------------------------------------------------------|

    happy       happy        joy         joy         happy       happy        joy 
:----2-2---------2-2---------2-2---------2-2----------2-2---------2-2---------2-2-------|
:---3---3-------3---3-------3---3-------3---3--------3---3-------3---3-------3----3-----|
:--2-----2-----2-----2-----2-----2-----2-----2------2-----2-----2-----2-----2------2----|
:-0-------0---0-------0---0-------0---0-------0----0-------0---0-------0---0--------0---|
:0---------0-0---------0-0---------0-0---------0--0---------0-0---------0-0-----------0-|
:---------------------------------------------------------------------------------------|

       joy                       happy         happy         joy           joy
e:-----2-2---------2-3-----------3-3-----------3-3-----------3-3-----------3-3------|
B:----3---3-------3---3---------3---3---------3---3---------3---3---------0---3-----|
G:---2-----2-----2-----0-------0-----0-------0-----0-------0-----0-------0-----0----|
D:--0-------0---0-------0-----0-------0-----0-------0-----0-------0-----0-------0---|
A:-0---------0-0---------2---2---------2---2---------2---2---------2---2---------2--|
E:------------------------3-3-----------3-3-----------3-3-----------3-3-----------3-|

       happy      happy        happy       happy            
e:-----0-0---------0-0---------0-0---------0-0---------0----|
B:----2---2-------2---2-------2---2-------2---2-------2-----|
G:---2-----2-----2-----2-----2-----2-----2-----2-----2------|
D:--2-------2---2-------2---2-------2---2-------2---2-------|
A:-0---------0-0---------0-0---------0-0---------0-0--------|
E:----------------------------------------------------------|

       happy      happy              
e:-----0-0---------0-0---------0-|
B:----2---2-------2---2-------2--|
G:---2-----2-----2-----2-----2---|
D:--2-------2---2-------2---2----|
A:-0---------0-0---------0-0-----|
E:-------------------------------|

       happy      happy        joy            joy  joy
e:-----0-0---------0-0---------0-0---------0---0---2---------------|
B:----2---2-------2---2-------2---2-------2----0---3---------------|
G:---2-----2-----2-----2-----2-----2-----2-----1---2---------------|
D:--2-------2---2-------2---2-------2---2------2---0---------------|
A:-0---------0-0---------0-0---------0-0-------2-------------------|
E:---------------------------------------------0-------4-3-4-5-4---|
            
Submit corrections

comments powered by Disqus
↑ Back to top | D.R.I. Tabs for Happy Happy Joy Joy. Lyrics for acoustic guitar and electric guitar. 1 Tablatures and chords are parodies/interpretations of the original songs. You may use it for private study, scholarship, research or language learning purposes only