» » »

D.R.I., Evil Minds Tabs (ver.1)

Artists:  A B C D E F G H I J K L M N O P Q R S T U V W X Y Z # 

Evil Minds Tabs (ver.1)

D.R.I. Tabs
 Rating:
4/5 (4 votes)
Evil Minds lessons Tabs too difficult? Try these video lessons and learn fast
                evil minds


D.R.I.






e:--------------------------------------------------------|
B:--------------------------------------------------------|
G:--------------------------------------------------------|
D:--------------------------------------------------------|
A:-4-4--4--4-4--4--4-4--4-5-7--4-4--4--4-4--4--10-10-10-9-|
E:-2-2--2--2-2--2--2-2--2-3-5--2-2--2--2-2--2--8--8--8--7-|

e:----------------------------------------------------|
B:----------------------------------------------------|
G:----------------------------------------------------|
D:----------------------------------------------------|
A:-4-4--4--4-4--4--4-4--9---5--4-4--4--4-4--4--9---5--|
E:-2-2--2--2-2--2--2-2--7---3--2-2--2--2-2--2--7---3--|

e:-----------------------------------------------------------------|
B:-----------------------------------------------------------------|
G:-----------------------------------------------------------------|
D:-----------------------------------------------------------------|
A:-4-4--4--4-4--4--4-4--11-11-11-12-12--4-4--4--4-4--4--9-9-10-10--|
E:-2-2--2--2-2--2--2-2--9--9--9--10-10--2-2--2--2-2--2--7-7-8--8---|

e:-------------------------------------|
B:-------------------------------------|
G:-------------------------------------|
D:-------------------------------------|
A:-4-4--4--4-4--4--4-4--11-11-11-12-12-|
E:-2-2--2--2-2--2--2-2--9--9--9--10-10-|

e:----------------------------------------|
B:----------------------------------------|
G:----------------------------------------|
D:-3-3--3-3--3-3--9-8--3-3--3-3--3-3--9-8-|
A:-1-1--1-1--1-1--7-6--1-1--1-1--1-1--7-6-|
E:----------------------------------------|


e:----------------------------------------|
B:----------------------------------------|
G:----------------------------------------|
D:-3-3--3-3--3-3--9-8--3-3--3-3--3-3--9-8-|
A:-1-1--1-1--1-1--7-6--1-1--1-1--1-1--7-6-|
E:----------------------------------------|


e:---------------------------------------------|
B:---------------------------------------------|
G:---------------------------------------------|
D:-3-3--3-3--3-3--9-8--3-3--3-3--3-3--9-8--9-8-|
A:-1-1--1-1--1-1--7-6--1-1--1-1--1-1--7-6--7-6-|
E:---------------------------------------------|

solo
e:---------------------------------------------------14~~~~--------------------------|
B:---------------------------------------------14-17-----------10p9------------------|
G:-9p7----------------------------5B~~~----16B----------------------11p9-------------|
D:-----11p9-11--7h9B~~~-------4h6-----------------------------------------11--9B~~~~-|
A:------------------------2h4--------------------------------------------------------|
E:-----------------------------------------------------------------------------------|


:------------------------------------------------------------------|
B:-----------------------------------------------------------------|
G:-----------------------------------------------------------------|
D:-----------------------------------------------------------------|
A:-4-4--4--4-4--4--4-4--11-11-11-12-12--4-4--4--4-4--4--9-9-10-10--|
E:-2-2--2--2-2--2--2-2--9--9--9--10-10--2-2--2--2-2--2--7-7-8--8---|

e:-------------------------------------|
B:-------------------------------------|
G:-------------------------------------|
D:-------------------------------------|
A:-4-4--4--4-4--4--4-4--11-11-11-12-12-|
E:-2-2--2--2-2--2--2-2--9--9--9--10-10-|

e:----------------------------------------|
B:----------------------------------------|
G:----------------------------------------|
D:-3-3--3-3--3-3--9-8--3-3--3-3--3-3--9-8-|
A:-1-1--1-1--1-1--7-6--1-1--1-1--1-1--7-6-|
E:----------------------------------------|


e:----------------------------------------|
B:----------------------------------------|
G:----------------------------------------|
D:-3-3--3-3--3-3--9-8--3-3--3-3--3-3--9-8-|
A:-1-1--1-1--1-1--7-6--1-1--1-1--1-1--7-6-|
E:----------------------------------------|


e:---------------------------------------|
B:---------------------------------------|
G:---------------------------------------|
D:-3-3--3-3--3-3--9-8--3-3--3-3--3-3-----|
A:-1-1--1-1--1-1--7-6--1-1--1-1--1-1--4--|
E:------------------------------------2--|
            
Submit corrections

comments powered by Disqus
↑ Back to top | D.R.I. Tabs for Evil Minds. Lyrics for acoustic guitar and electric guitar. Tablatures and chords are parodies/interpretations of the original songs. You may use it for private study, scholarship, research or language learning purposes only