» » »

D.R.I., Dry Heaves Tabs (ver.2)

Artists:  A B C D E F G H I J K L M N O P Q R S T U V W X Y Z # 

Dry Heaves Tabs (ver.2)

D.R.I. Tabs
 Rating:
4/5 (4 votes)
Dry Heaves lessons Tabs too difficult? Try these video lessons and learn fast
1
                dry heaves


D.R.I.






  4 times
e:-----------------------|
B:-----------------------|
G:-----------------------|
D:-3-3--6-6--8-8---------|
A:-1-1--4-4--6-6--6-6----|
E:----------------4-4----|

   4 times
e:-----------------------|
B:-----------------------|
G:-----------------------|
D:-3-3--6-6--8-8---------|
A:-1-1--4-4--6-6--6-6----|
E:----------------4-4----|


e:------------------------------------|
B:------------------------------------|
G:------------------------------------|
D:-3--3-6-4--3--2-3-3-3--6--4--3-3----|
A:-1--1-4-2--1--0-1-1-1--4--2--1-1----|
E:------------------------------------|

e:-----------------------|
B:-----------------------|
G:-----------------------|
D:-3--3-6-4--3--2-3-3-3--|
A:-1--1-4-2--1--0-1-1-1--|
E:-----------------------|

4 times
e:-----------------------|
B:-----------------------|
G:-----------------------|
D:-3-3--6-6--8-8---------|
A:-1-1--4-4--6-6--6-6----|
E:----------------4-4----|


e:-----------------------------------------------------------------------------------|
B:-----------------------------------------------------------------------------------|
G:-----------------------------------------------------------------------------------|
D:----------------2-2--4-4---------------x-x-x----------x-x-x-------6-6-------4-4----|
A:-4--4-4--4-4-4--0-0--2-2--4---4--4-4---x-x-x--4--4-4--x-x-x--4-4--4-4--7-7--2-2--4-|
E:-2--2-2--2-2-2------------2---2--2-2---x-x-x--2--2-2--x-x-x--2-2-------5-5-------2-|

e:------------------------|
B:------------------------|
G:------------------------|
D:---------x-x-x----------|
A:--4-4-4--x-x-x--4--x\---|
E:--2-2-2--x-x-x--2--x\---|

4 times
e:-----------------------|
B:-----------------------|
G:-----------------------|
D:-3-3--6-6--8-8---------|
A:-1-1--4-4--6-6--6-6----|
E:----------------4-4----|
    
e:------------------------------------|
B:------------------------------------|
G:------------------------------------|
D:-3--3-6-4--3--2-3-3-3--6--4--3-3----|
A:-1--1-4-2--1--0-1-1-1--4--2--1-1----|
E:------------------------------------|


e:------------------------------------|
B:------------------------------------|
G:------------------------------------|
D:-3--3-6-4--3--2-3-3-3--6--4--3-3----|
A:-1--1-4-2--1--0-1-1-1--4--2--1-1----|
E:------------------------------------|


e:------------------------------------|
B:------------------------------------|
G:------------------------------------|
D:-3--3-6-4--3--2-3-3-3--6--4--3-3----|
A:-1--1-4-2--1--0-1-1-1--4--2--1-1----|
E:------------------------------------|

e:-----------------------|
B:-----------------------|
G:-----------------------|
D:-3--3-6-4--3--2-3-3-3--|
A:-1--1-4-2--1--0-1-1-1--|
E:-----------------------|
            
Submit corrections

comments powered by Disqus
↑ Back to top | D.R.I. Tabs for Dry Heaves. Lyrics for acoustic guitar and electric guitar. 1 Tablatures and chords are parodies/interpretations of the original songs. You may use it for private study, scholarship, research or language learning purposes only