» » »

D.R.I., Argument Then War Tabs (ver.1)

Artists:  A B C D E F G H I J K L M N O P Q R S T U V W X Y Z # 

Argument Then War Tabs (ver.1)

D.R.I. Tabs
 Rating:
4/5 (4 votes)
Argument Then War lessons Tabs too difficult? Try these video lessons and learn fast
                argument then war


D.R.I.







e:------------------------------------|
B:------------------------------------|
G:------------------------------------|
D:------------------------------------|
A:-3-2-0-2-3------5-----7-------------|
E:------------0-0---0-0---0-0--3-2-0--|


e:------------------------------------|
B:------------------------------------|
G:------------------------------------|
D:-3-2-0-2-3------5-----7-------------|
A:------------0-0---0-0---0-0--3-2-0--|
E:------------------------------------|


e:------------------------------------|
B:------------------------------------|
G:------------------------------------|
D:------------------------------------|
A:-3-2-0-2-3------5-----7-------------|
E:------------0-0---0-0---0-0--3-2-0--|


e:-----------------------------|
B:-----------------------------|
G:-----------------------------|
D:-2---------------------------|
A:-2---------------------------|
E:-0---------------------------|


          
:-------------------------------------------|
:-------------------------------------------|
:-------------------------------------------|
:-------------------------------------------|
:-2-----------2-----------2-----------3-3-2-|
:-0--0-0-0-0--0--0-0-0-0--0--0-0-0-0--1-1-0-|



:-------------------------------------------------|
:-------------------------------------------------|
:-------------------------------------------------|
:-9-9-7-9-----10-7-9-------9-9-7-9--------7-7-----|
:-7-7-5-7-----8--5-7-------7-7-5-7--------5-5-----|
:---------000--------00000---------00000------000-|


:--------------------------------------------------------------|
:--------------------------------------------------------------|
:--------------------------------------------------------------|
:-9-9-7-9-----10-7-9-------9-9-7-9--------7-7--10-10-9-9-------|
:-7-7-5-7-----8--5-7-------7-7-5-7--------5-5--8--8--7-7-2--2--|
:---------000--------00000---------00000-----------------0--0--|


:-----------------------------------------------------------------|
:-----------------------------------------------------------------|
:-----------------------------------------------------------------|
:-----------9-----------10--7-----------9------------7-7-7-7-7----|
:-2---------7-----------8---5-----------7--2---------5-5-5-5-5----|
:-0--0-0-0----0--0-0-0--------0--0-0-0-----0--0-0-0---------------|


:--------------------------------------------------------------------|
:--------------------------------------------------------------------|
:----------------------------------------------------------------5nh-|
:-----------9-----------10--7-----------9--------------------5nh-----|
:-2---------7-----------8---5-----------7--2-------------5nh---------|
:-0--0-0-0----0--0-0-0--------0--0-0-0-----0--0-0-0--5nh-------------|

verse
:-----------------------------------------------------------------|
:-----------------------------------------------------------------|
:-----------------------------------------------------------------|
:-----------9-----------10--7-----------9------------7-7-7-7-7----|
:-2---------7-----------8---5-----------7--2---------5-5-5-5-5----|
:-0--0-0-0----0--0-0-0--------0--0-0-0-----0--0-0-0---------------|

:-----------------------------------------------------------------|
:-----------------------------------------------------------------|
:---------------------------------------------------10-10-10-10-9-|
:-----------9-----------10--7-----------7--7-7-7-7----------------|
:-2---------7-----------8---5-----------5--5-5-5-5----------------|
:-0--0-0-0----0--0-0-0--------0--0-0-0----------------------------|

:------------------------------------------------------|
:------------------------------------------------------|
:------------------------------------------------------|
:-----------9-----------10/9---------9/7-----------7---|
:-2---------7-----------8-/7---------7/5-----------5---|
:-0--0-0-0----0--0-0-0--------0-0-0------0--0-0-0------|


:--------------------------|
:--------------------------|
:--------------------------|
:-2-2--9-9--5-5------------|
:-0-0--7-7--3-3--0-2-3-0---|
:--------------------------|

man wans o fih...
:--------------------------|
:--------------------------|
:--------------------------|
:-2-2--9-9--5-5------------|
:-0-0--7-7--3-3--0-2-3-0---|
:--------------------------|


:-----------------|
:-----------------|
:-----------------|
:-2-2--9-9--5--4--|
:-0-0--7-7--3--2--|
:-----------------|


:-----------------------------------------------------------------|
:-----------------------------------------------------------------|
:-----------------------------------------------------------------|
:-----------9-----------10--7-----------9------------7-7-7-7-7----|
:-2---------7-----------8---5-----------7--2---------5-5-5-5-5----|
:-0--0-0-0----0--0-0-0--------0--0-0-0-----0--0-0-0---------------|


:--------------------------------------------------------------------|
:--------------------------------------------------------------------|
:----------------------------------------------------------------5nh-|
:-----------9-----------10--7-----------9--------------------5nh-----|
:-2---------7-----------8---5-----------7--2-------------5nh---------|
:-0--0-0-0----0--0-0-0--------0--0-0-0-----0--0-0-0--5nh-------------|

   
:-----------|
:-----------|
:-----------|
:-----------|
:-2-2-2-2---|
:-0-0-0-0---|

:---------------------------------------------------------|
:---------------------------------------------------------|
:---------------------------------------------------------|
:---9-----------10--7-----------9------------7-7-7-7-7----|
:---7-----------8---5-----------7--2---------5-5-5-5-5----|
:-----0--0-0-0--------0--0-0-0-----0--0-0-0---------------|


:-----------|
:-----------|
:-----------|
:-----------|
:-2-2-2-2---|
:-0-0-0-0---|

:---------------------------------------------------------|
:---------------------------------------------------------|
:---------------------------------------------------------|
:---9-----------10--7-----------9------------7-7-7-7-7----|
:---7-----------8---5-----------7--2---------5-5-5-5-5----|
:-----0--0-0-0--------0--0-0-0-----0--0-0-0---------------|

   
:-----------------------------------------------------------------|
:-----------------------------------------------------------------|
:---------------------------------------------------10-10-10-10-9-|
:-----------9-----------10--7-----------7--7-7-7-7----------------|
:-2---------7-----------8---5-----------5--5-5-5-5----------------|
:-0--0-0-0----0--0-0-0--------0--0-0-0----------------------------|

:-----------------------------------------------------------------|
:-----------------------------------------------------------------|
:---------------------------------------------------10-10-10-10-9-|
:-----------9-----------10--7-----------7--7-7-7-7----------------|
:-2---------7-----------8---5-----------5--5-5-5-5----------------|
:-0--0-0-0----0--0-0-0--------0--0-0-0----------------------------|

:------------------------------------------------------|
:------------------------------------------------------|
:------------------------------------------------------|
:-----------9-----------10/9---------9/7-----------7---|
:-2---------7-----------8-/7---------7/5-----------5---|
:-0--0-0-0----0--0-0-0--------0-0-0------0--0-0-0------|


:--------------------------|
:--------------------------|
:--------------------------|
:-2-2--9-9--5-5------------|
:-0-0--7-7--3-3--0-2-3-0---|
:--------------------------|

man wans o fih...
:--------------------------|
:--------------------------|
:--------------------------|
:-2-2--9-9--5-5------------|
:-0-0--7-7--3-3--0-2-3-0---|
:--------------------------|

:--------------------------|
:--------------------------|
:--------------------------|
:-2-2--9-9--5-5---------2--|
:-0-0--7-7--3-3--0-2-3--0--|
:--------------------------|
            
Submit corrections

comments powered by Disqus
↑ Back to top | D.R.I. Tabs for Argument Then War. Lyrics for acoustic guitar and electric guitar. Tablatures and chords are parodies/interpretations of the original songs. You may use it for private study, scholarship, research or language learning purposes only