» » »

Simple Minded Tabs (ver.3)

Artists:  A B C D E F G H I J K L M N O P Q R S T U V W X Y Z # 

Simple Minded Tabs (ver.3)

Dragpipe
Rating:
0/5 (0 votes)

Hard to play? Try these video lessons and learn fast.
                Intro
|-18-18--18-18--18-18--18-18-18-
|-------------------------------
|-------------------------------
|------------------------------- X2
|-------------------------------
|-------------------------------


Riff
|-------------------------------
|-------------------------------
|-------------------------------
|---0356530-00-00-00------------X13
|---0356530-00-00-00------------
|---0356530-00-00-00------------

Chours : (you switch do the top then bottom, top and bottom) 
|-------------------------------
|-------------------------------
|------------555777888777-------
|-50--50--50-xxxxxxxxxxxx-------
|-50--50--50-333555666555-------
|-30--30--30--------------------

|-------------------------------
|-------------------------------
|-------------------------------
|-50--50--50-555777666555-------
|-50--50--50-333555444333-------
|-30--30--30--------------------

Part

|-------------------------------
|-------------------------------
|-------------------------------
|--00-00-00-23------------------
|--00-00-00-23------------------
|--00-00-00-23------------------
PM.....................


This is a sweet song i hope it is good. i got it as close as i could. i also have summited Fountian of pain look for that.
            
Hard to play? Try these video lessons and learn fast. | Correct




comments powered by Disqus
↑ Back to top | Tablatures and chords are parodies/interpretations of the original songs. You may use it for private study, scholarship, research or language learning purposes only