» » »

Dope, Take Your Best Shot Tabs (ver.2)

Artists:  A B C D E F G H I J K L M N O P Q R S T U V W X Y Z # 

Take Your Best Shot Tabs (ver.2)

Dope Tabs
 Rating:
4/5 (4 votes)
Take Your Best Shot lessons Tabs too difficult? Try these video lessons and learn fast
                TUNING: Drop D (e B G D A D [thinnest - thickest])

* This tab features EVERY particle of a noise in the song, even the
  noise that the guitarist' hand makes as he mutes the strings at the
  end of the song... I was really, really bored! It's all put into
  frets so you can 'play the noises and sound effects'.
* The tabs are divided: First off are all the main guitar parts, then
  after those are all the little bits of stuff that are extra.

Intro (all palm muted)
D |-3---0-0-0-0-3---0-0-0-0-5---6--|
A |-3---0-0-0-0-3---0-0-0-0-5---6--|
D |-3---0-0-0-0-3---0-0-0-0-5---6--|

Fill
D |-----6-----------|
A |-5-5---5---------|
D |---------0-0-6-0-|

Chorus
D |-0-0---0-0-1-----0-0-----3-------0-0---0-0-1-----0-0-----6------|
A |-0-0---0-0-1-----0-0-----3-------0-0---0-0-1-----0-0-----6------|
D |-0-0---0-0-1-----0-0-----3-------0-0---0-0-1-----0-0-----6------|
 pm:  x               x               x               x

Verse
D |-0---0-000-0-3---0---0-000-0-6---0---0-000-0-3---0---6---0---3--|
A |-0---0-000-0-3---0---0-000-0-6---0---0-000-0-3---0---6---0---3--|
D |-0---0-000-0-3---0---0-000-0-6---0---0-000-0-3---0---6---0---3--|
 pm:    x xxx x         x xxx x         x xxx x

Bridge
D |-1---0---0-0-0-0-3---0---0-0-0-0-6---0---0-0-0-0-3---0---6----|
A |-1---0---0-0-0-0-3---0---0-0-0-0-6---0---0-0-0-0-3---0---6----|
D |-1---0---0-0-0-0-3---0---0-0-0-0-6---0---0-0-0-0-3---0---6----|
 pm:        x x x x         x x x x         x x x x

Interlude Part 1
D |-0-0---0-0-0-1---0-0---0-0-0-1---0-0---0-0-0-1---0-------|
A |-0-0---0-0-0-1---0-0---0-0-0-1---0-0---0-0-0-1---0-------|
D |-0-0---0-0-0-1---0-0---0-0-0-1---0-0---0-0-0-1---0-------|
 pm:  x       x       x       x       x       x

Interlude Part 2
D |-0-0---0-0-0-1---0-0---0-0-0-1---0-0---0-0-0-1---0-0-----6------|
A |-0-0---0-0-0-1---0-0---0-0-0-1---0-0---0-0-0-1---0-0-----6------|
D |-0-0---0-0-0-1---0-0---0-0-0-1---0-0---0-0-0-1---0-0-----6------|
 pm:  x       x       x       x       x       x       x

Interlude Part 3
D |-0-0---0-0-0-1---0-0---0-0-0-1---0-0---0-0-0-1---0-0-----3------|
A |-0-0---0-0-0-1---0-0---0-0-0-1---0-0---0-0-0-1---0-0-----3------|
D |-0-0---0-0-0-1---0-0---0-0-0-1---0-0---0-0-0-1---0-0-----3------|
 pm:  x       x       x       x       x       x       x

End Of Song Chord
D |-0----|
A |-0----|
D |-0----|
 * You can either play all three string or just the bottom (thickest)
   string, but technically the song ends as all three.
 * Whatever you choose, let it ring.

[The SONG STRUCTURE is right at the bottom of the tabs.]

=All of the above tabs have been major guitar parts. The tabs below =
=are pieces of record/dj filling, slides, skips, samples, etc. and  =
=might not be heard so easily, or might not be too important to you.=
<Numbers inside these pointed brackets signify the track time that
 the particular part appears in. Some parts have multiple times.>

Record Fill 1 (muted) <0:13>
e |-17-17----17-17-----|

Record Fill 2 (very quick) <1:46> <2:45>
e |-18h20m-|
 m = mute the note/string

Record Fill 3 <1:53>
G |-13\7/14\7/15h18-|
 h = hammer on
 \ = downwards slide
 / = upwards slide

Record Fill 4 (muted) <1:53>
G |-15-15----15-15----15-|

Record Fill 5 (played fairly quick) <2:36> <2:38> <2:40>
e |-15h16-15m-|
 m = mute the note/string

Interlude Fill 1 <2:05>
e |-------15\-------------------------------|
B |-15\---------15\-13\---16\-----------15\-|
 * Just in case you don't realise, you only have to slide down
   a few frets, eg. 3 - 6 frets downslide from the original fret.

Interlude Fill 2 <2:12> <2:16>
e --------15\-----------------------|
B -15\----------15\-13\---16\---15\-|
 * Yes it's a lot like I.F.1 but not a big wait before the last note.
 * Yes, the same goes for the downslides here as for I.F.1.

Slide 1 <0:51> <1:08>
G |-17\----|
D |-15\----|
 * You can either pick this, or just do a pick slide on the 15\.

Slide 2 <1:28> <2:18>
D |-16\11/18\-|
A |-14\\9/16\-|
 * You can either pick this, or just do a pick slide using the
   frets marked on the A string.

Slide 3 <2:48>
G |-19\----|
D |-17\----|
 * You can either pick this, or just do a pick slide on the 17\.


---------------------------|----------------------------------
SONG STRUCTURE             |
---------------------------|----------------------------------
GUITAR                     | ROUGH FILL PLACES FOR EXTRA HELP
---------------------------|----------------------------------
Intro x2                   |
Fill x1                    |
Intro x2                   | Record Fill, Slide
Chorus x4                  |
Verse x2                   |
Bridge x2                  | Slide
Chorus x4                  |
Verse x2                   | Slide
Bridge x2                  |
Chorus x4                  | Slide
Intro x4                   | Record Fill
Fill x1                    |
Interlude Part 1 x4        |
Interlude Part 2 x1        | Interlude Fill
Interlude Part 3 x1        | Interlude Fill
Chorus x4                  |
Fill x1                    |
End Of Song Chord x1       | Record Fills (lots of them), Slide
            
Submit corrections

comments powered by Disqus
↑ Back to top | Dope Tabs for Take Your Best Shot. Lyrics for acoustic guitar and electric guitar. Tablatures and chords are parodies/interpretations of the original songs. You may use it for private study, scholarship, research or language learning purposes only