» » »

Dope, Dream Tabs (ver.1)

Artists:  A B C D E F G H I J K L M N O P Q R S T U V W X Y Z # 

Dream Tabs (ver.1)

Dope Tabs
Rating:
3/5 (2 votes)
Dream lessons Tabs too difficult? Try these video lessons and learn fast
                Dope's Dream

I used drop B since I have my floyd in that tuning, but it can be played in drop D
though I
think it sounds more accurate in B w/ the palm mutes on the intro/chorus. You can figure
the timing,
it's pretty simple, but I tried to get it as close to it as you can in text, haha.

Intro/Chorus
C#------------------------------|
G#------------------------------|
E ------------------------------|
B ------------------------------|
F#-0-0--7--8--7--3---5----------|
B -0-0--7--8--7--3---5---7/13/7-|
PM . .

Pre Chorus (Or so I play it, not sure what the original is but I'll add it
later when it's not 3am haha.)
C#------------------------------|
G#------------------------------|
E ------------------------------|
B -14------13-------------------|
F#-----12------12--8/10---------|
B ------------------------------| (Do the 8/10 slide first time only)

Verse
C#--------------------------------------------|
G#--------------------------------------------|
E --------------------------------------------|
B --------------------------------------------|
F#--------------------------------------------|
B -/13-7--7--5-5--7-5--/13-7--7--5-5--3-5-----|
PM  .  .  .  . .  . .   .  .  .  . .  . .

Also, during the verse another guitar will play what seems to be
C#--------------------------------------------|
G#--------------------------------------------|
E --------------------------------------------|
B --------------------------------------------|
F#-/13br--------------------------------5/13--|
B -/13br--------------------------------5/13--|

Bridge
C#----------------------------------|
G#----------------------------------|
E ----------------------------------|
B ----------------------------------|
F#----------------------------------|
B -7/13--7-5-7-5--7/13--7-5-3-5-----|


Anyways, this is what I got from the song and this is also my first tab, so tell me what
think, or
me a message
            

comments powered by Disqus
↑ Back to top | Dope Tabs for Dream. Lyrics for acoustic guitar and electric guitar. Tablatures and chords are parodies/interpretations of the original songs. You may use it for private study, scholarship, research or language learning purposes only