» » »

Crazy Tabs (ver.3)

Artists:  A B C D E F G H I J K L M N O P Q R S T U V W X Y Z # 

Crazy Tabs (ver.3)

Dope
Rating:
0/5 (0 votes)

Hard to play? Try these video lessons and learn fast.
                p=pull-off
h=hammer-on
+=Pinch harmonic
m=palm mute
s= sustain
Intro x10

----------------------------------------------------|
----5h6p5---3h5p3---5h6p5---0--0--------------------|
----------------------------------------------------|
----------------------------------------------------|
----------------------------------------------------|
----------------------------------------------------|
                                                                  +  +

guitar 2 after 6th time (intro)
----------------------------------------------------|
----------------------------------------------------|
----------------------------------------------------|
--2-------------------------------------------------|
--2-------------------------------------------------| x4
--2-------------------------------------------------|
    s
Chorus

-------------------------------------------------------|
-------------------------------------------------------|
-------------------------------------------------------|
-2--5--10--9-------------------------------------------|x6
-2--5--10--9-------------------------------------------|
-2--5--10--9-------------------------------------------|

Chorus (guitar 2) after 2nd time through chorus.

--3-5-5-5--3-5-5-5--3-5-5-5--5-3-3-3------------------|
------------------------------------------------------|
------------------------------------------------------|
------------------------------------------------------|
------------------------------------------------------|
------------------------------------------------------|

Chorus outro (2nd chorus)

--------------------------------------------|
--------------------------------------------|
--------------------------------------------|
--9-9-9-9-----------------------------------|
--9-9-9-9-----------------------------------| x2
--9-9-9-9-----------------------------------|
    m m m m

-------------------------------------------------------------|
-------------------------------------------------------------|
-------------------------------------------------------------|
--2-3-0-10-9-7-7---2-3-9-10---2-3-0-9-10-10-10---2-3-10-9----|
--2-3-0-10-9-7-7---2-3-9-10---2-3-0-9-10-10-10---2-3-10-9----| return to chorus
--2-3-0-10-9-7-7---2-3-9-10---2-3-0-9-10-10-10---2-3-20-9----|


Repeat intro for verses
Repeat chorus for ending

  ___
/      \
|o   o|
\  ^  /
  !!!!!
            
Hard to play? Try these video lessons and learn fast. | Correct




comments powered by Disqus
↑ Back to top | Tablatures and chords are parodies/interpretations of the original songs. You may use it for private study, scholarship, research or language learning purposes only