» » »

Bitch Tabs (ver.1)

Artists:  A B C D E F G H I J K L M N O P Q R S T U V W X Y Z # 

Bitch Tabs (ver.1)

Dope
Rating:
3/5 (7 votes)

Hard to play? Try these video lessons and learn fast.
                Hithis is Dr.Sketchy this is my Fifth tab. I'm sure its 100%. PLease don't copy and this 
is my own work thanks.

Song-b**ch
Artist-Dope
Album-Group Theorpy
Tuning-(C#,G#,C#,F#,A#,D#)
Guitar 1-Virus(Lead)
Guitar 2-Edsel Dope(Rhythm) He only some times joins usally on chorus but plays the 
same thing on this song.

Legend
PM=Palm Mute
/=Slide

Intro
D#|---------------------------------|
A#|---------------------------------|
F#|---------------------------------|
C#|--12/--1-0--1-0--1-0-1-0--0-1-0--|
G#|--12/--1-0--1-0--1-0-1-0--0-1-0--|
C#|--12/--1-0--1-0--1-0-1-0--0-1-0--|

D#|----------------------------|
A#|----------------------------|
F#|----------------------------|
C#|--1-0--1-0--1-0-1-0--0-1-0--|
G#|--1-0--1-0--1-0-1-0--0-1-0--|
C#|--1-0--1-0--1-0-1-0--0-1-0--|

D#|----------------------------|
A#|----------------------------|
F#|----------------------------|
C#|--1-0--1-0--1-0-1-0--0-1-0--|
G#|--1-0--1-0--1-0-1-0--0-1-0--|
C#|--1-0--1-0--1-0-1-0--0-1-0--|

D#|----------------------------|
A#|----------------------------|
F#|----------------------------|
C#|--1-0--1-0--1-0-1-0--0-1-0--|
G#|--1-0--1-0--1-0-1-0--0-1-0--|
C#|--1-0--1-0--1-0-1-0--0-1-0--|

Verse-Under the first bit is the second part but played Palm Muted than dont do it live 
it youre jamming the Rhythm guitar and play it
D#|---------------------------|
A#|---------------------------|
F#|---------------------------|
C#|--1-0-----------------0-0--|
G#|--1-0-----------------0-0--|
C#|--1-0-----------------0-0--|

D#|-----------------------------------------|
A#|-----------------------------------------|
F#|-----------------------------------------|
C#|-----------------------------------------|
G#|-----------5---5-6-6----5---5-6-6-6-6-6--|
C#|--12/--0-0---0-------0----0--------------|

D#|----------------------------------|
A#|----------------------------------|
F#|----------------------------------|
C#|----------------------------------|
G#|------5---5-6-6----5---5-6-6-6-6--|
C#|--0-0---0-------0----0------------|

Pre-Chorus
D#|-----------------------------------------------|
A#|-----------------------------------------------|
F#|-----------------------------------------------|
C#|----------7p0-1p0----------------7p0-1p0--12/--|
G#|--0h5-5-0----------------0h5-5-0----------12/--|
C#|------------------------------------------12/--|

D#|---------------------------------------------------------|
A#|---------------------------------------------------------|
F#|---------------------------------------------------------|
C#|----------7p0-1p0----------------7p0-1p0-5#-5#-5#-5#-5#--|
G#|--0h5-5-0----------------0h5-5-0-------------------------|
C#|---------------------------------------------------------|

Chorus
D#|----------------------------|
A#|----------------------------|
F#|----------------------------|
C#|--1-0--1-0--1-0-1-0--0-1-0--|
G#|--1-0--1-0--1-0-1-0--0-1-0--|
C#|--1-0--1-0--1-0-1-0--0-1-0--|

D#|----------------------------|
A#|----------------------------|
F#|----------------------------|
C#|--1-0--1-0--1-0-1-0--0-1-0--|
G#|--1-0--1-0--1-0-1-0--0-1-0--|
C#|--1-0--1-0--1-0-1-0--0-1-0--|

D#|----------------------------|
A#|----------------------------|
F#|----------------------------|
C#|--1-0--1-0--1-0-1-0--0-1-0--|
G#|--1-0--1-0--1-0-1-0--0-1-0--|
C#|--1-0--1-0--1-0-1-0--0-1-0--|

D#|----------------------------|
A#|----------------------------|
F#|----------------------------|
C#|--1-0--1-0--1-0-1-0--0-1-0--|
G#|--1-0--1-0--1-0-1-0--0-1-0--|
C#|--1-0--1-0--1-0-1-0--0-1-0--|

Pre-Verse
D#|-----------------------------------|
A#|-----------------------------------|
F#|-----------------------------------|
C#|--1-0-----1-0-----1-0-1-0-1-0------|
G#|-----------------------------------|
C#|------0-0-----0-0-------------0-0--|
PM   . . . . . . . . . . . . . . . .

Verse
D#|---------------------------|
A#|---------------------------|
F#|---------------------------|
C#|--1-0-----------------0-0--|
G#|--1-0-----------------0-0--|
C#|--1-0-----------------0-0--|

D#|-----------------------------------------|
A#|-----------------------------------------|
F#|-----------------------------------------|
C#|-----------------------------------------|
G#|-----------5---5-6-6----5---5-6-6-6-6-6--|
C#|--12/--0-0---0-------0----0--------------|

D#|----------------------------------|
A#|----------------------------------|
F#|----------------------------------|
C#|----------------------------------|
G#|------5---5-6-6----5---5-6-6-6-6--|
C#|--0-0---0-------0----0------------|

Pre-Chorus
D#|-----------------------------------------------|
A#|-----------------------------------------------|
F#|-----------------------------------------------|
C#|----------7p0-1p0----------------7p0-1p0--12/--|
G#|--0h5-5-0----------------0h5-5-0----------12/--|
C#|------------------------------------------12/--|

D#|---------------------------------------------------------|
A#|---------------------------------------------------------|
F#|---------------------------------------------------------|
C#|----------7p0-1p0----------------7p0-1p0-5#-5#-5#-5#-5#--|
G#|--0h5-5-0----------------0h5-5-0-------------------------|
C#|---------------------------------------------------------|

Chorus
D#|----------------------------|
A#|----------------------------|
F#|----------------------------|
C#|--1-0--1-0--1-0-1-0--0-1-0--|
G#|--1-0--1-0--1-0-1-0--0-1-0--|
C#|--1-0--1-0--1-0-1-0--0-1-0--|

D#|----------------------------|
A#|----------------------------|
F#|----------------------------|
C#|--1-0--1-0--1-0-1-0--0-1-0--|
G#|--1-0--1-0--1-0-1-0--0-1-0--|
C#|--1-0--1-0--1-0-1-0--0-1-0--|

D#|----------------------------|
A#|----------------------------|
F#|----------------------------|
C#|--1-0--1-0--1-0-1-0--0-1-0--|
G#|--1-0--1-0--1-0-1-0--0-1-0--|
C#|--1-0--1-0--1-0-1-0--0-1-0--|

D#|----------------------------|
A#|----------------------------|
F#|----------------------------|
C#|--1-0--1-0--1-0-1-0--0-1-0--|
G#|--1-0--1-0--1-0-1-0--0-1-0--|
C#|--1-0--1-0--1-0-1-0--0-1-0--|

Pre-Verse
D#|-----------------------------------|
A#|-----------------------------------|
F#|-----------------------------------|
C#|--1-0-----1-0-----1-0-1-0-----1-0--|
G#|-----------------------------------|
C#|------0-0-----0-0---------0-0------|
PM   . . . . . . . . . . . . . . . .

D#|-----------------------------------|
A#|-----------------------------------|
F#|-----------------------------------|
C#|--1-0-----1-0-----1-0-1-0-----1-0--|
G#|-----------------------------------|
C#|------0-0-----0-0---------0-0------|
PM   . . . . . . . . . . . . . . . .

Interlude

D#|-------------------------------------------------------------|
A#|-------------------------------------------------------------|
F#|-------------------------------------------------------------|
C#|-------------------------------------------------------------|
G#|-------------------------------------------------------------|
C#|--12-0-0-12-0-0-12-0-0-12-0-0-12--3-0-0-3-0-0-3-0-0-3-0-0-3--|

D#|----------------------------------------------------------|
A#|----------------------------------------------------------|
F#|----------------------------------------------------------|
C#|----------------------------------------------------------|
G#|----------------------------------------------------------|
C#|--8-0-0-8-0-0-8-0-0-8-0-0-8--5-0-0-5-0-0-5-0-0-5-0-0-3-2--|

D#|-------------------------------------------------------------|
A#|-------------------------------------------------------------|
F#|-------------------------------------------------------------|
C#|-------------------------------------------------------------|
G#|-------------------------------------------------------------|
C#|--12-0-0-12-0-0-12-0-0-12-0-0-12--3-0-0-3-0-0-3-0-0-3-0-0-3--|

D#|----------------------------------------------------------|
A#|----------------------------------------------------------|
F#|----------------------------------------------------------|
C#|----------------------------------------------------------|
G#|----------------------------------------------------------|
C#|--8-0-0-8-0-0-8-0-0-8-0-0-8--5-0-0-5-0-0-5-0-0-5-0-0-3-2--|

Bridge
D#|----------------------------|
A#|----------------------------|
F#|----------------------------|
C#|--1-0--1-0--1-0-1-0--0-1-0--|
G#|--1-0--1-0--1-0-1-0--0-1-0--|
C#|--1-0--1-0--1-0-1-0--0-1-0--|

D#|----------------------------|
A#|----------------------------|
F#|----------------------------|
C#|--1-0--1-0--1-0-1-0--0-1-0--|
G#|--1-0--1-0--1-0-1-0--0-1-0--|
C#|--1-0--1-0--1-0-1-0--0-1-0--|

Verse
D#|---------------------------|
A#|---------------------------|
F#|---------------------------|
C#|--1-0-----------------0-0--|
G#|--1-0-----------------0-0--|
C#|--1-0-----------------0-0--|

D#|---------------------------|
A#|---------------------------|
F#|---------------------------|
C#|---------------------------|
G#|-----------5---5-6-6----5--|
C#|--12/--0-0---0-------0-----|

Chorus
D#|----------------------------|
A#|----------------------------|
F#|----------------------------|
C#|--1-0--1-0--1-0-1-0--0-1-0--|
G#|--1-0--1-0--1-0-1-0--0-1-0--|
C#|--1-0--1-0--1-0-1-0--0-1-0--|

D#|----------------------------|
A#|----------------------------|
F#|----------------------------|
C#|--1-0--1-0--1-0-1-0--0-1-0--|
G#|--1-0--1-0--1-0-1-0--0-1-0--|
C#|--1-0--1-0--1-0-1-0--0-1-0--|

D#|----------------------------|
A#|----------------------------|
F#|----------------------------|
C#|--1-0--1-0--1-0-1-0--0-1-0--|
G#|--1-0--1-0--1-0-1-0--0-1-0--|
C#|--1-0--1-0--1-0-1-0--0-1-0--|

D#|----------------------------|
A#|----------------------------|
F#|----------------------------|
C#|--1-0--1-0--1-0-1-0--0-1-0--|
G#|--1-0--1-0--1-0-1-0--0-1-0--|
C#|--1-0--1-0--1-0-1-0--0-1-0--|

Outro
D#|----------------------------|
A#|----------------------------|
F#|----------------------------|
C#|--1-0--1-0--1-0-1-0--0-1-0--|
G#|--1-0--1-0--1-0-1-0--0-1-0--|
C#|--1-0--1-0--1-0-1-0--0-1-0--|

D#|----------------------------|
A#|----------------------------|
F#|----------------------------|
C#|--1-0--1-0--1-0-1-0--0-1-0--|
G#|--1-0--1-0--1-0-1-0--0-1-0--|
C#|--1-0--1-0--1-0-1-0--0-1-0--|

D#|----------------------------|
A#|----------------------------|
F#|----------------------------|
C#|--1-0--1-0--1-0-1-0--0-1-0--|
G#|--1-0--1-0--1-0-1-0--0-1-0--|
C#|--1-0--1-0--1-0-1-0--0-1-0--|

D#|----------------------------|
A#|----------------------------|
F#|----------------------------|
C#|--1-0--1-0--1-0-1-0--0-1-0--|
G#|--1-0--1-0--1-0-1-0--0-1-0--|
C#|--1-0--1-0--1-0-1-0--0-1-0--|
            
Hard to play? Try these video lessons and learn fast. | Correct




comments powered by Disqus
↑ Back to top | Tablatures and chords are parodies/interpretations of the original songs. You may use it for private study, scholarship, research or language learning purposes only