» » »

Dope, America The Pitiful Tabs (ver.2)

Artists:  A B C D E F G H I J K L M N O P Q R S T U V W X Y Z # 

America The Pitiful Tabs (ver.2)

Dope Tabs
 Rating:
4/5 (4 votes)
America The Pitiful lessons Tabs too difficult? Try these video lessons and learn fast
                Dif.: 6

NOTE: Tune down to Drop D (D A D G B E)

Intro/Verse
D|-0-0-0-0---0-0-0-0---|
A|-0-0-0-0---0-0-0-0---|
D|-0-0-0-0---0-0-0-0---|
  Pm-----------------|

Pre-Chorus/Post-Chorus/Verse 2
D|-0-0-0-0---0-0-0-0---|
A|-0-0-0-0---0-0-0-0---|
D|-0-0-0-0---0-0-0-0---|

Fill 1
D|-0-----------------|
A|-0-----------------|
D|-0-----------------|

Chorus ("I don’t need it, you don’t wanna…")
D|-0-0-0-0--3-3-3-3--0-6-5-3-----0-0-0-0--3-3-3-3--0-6-5-3-5--|
A|-0-0-0-0--3-3-3-3--0-6-5-3-----0-0-0-0--3-3-3-3--0-6-5-3-5--|
D|-0-0-0-0--3-3-3-3--0-6-5-3-----0-0-0-0--3-3-3-3--0-6-5-3-5--|

Fill 2/Post-Chorus (Gtr. 2) (slow bends)
B|----------4^--| < full step
G|--1^----------| < ½ step

Fill 3 (Gtr. 2) (Pik scr*pes)
D|---X\\\\--X\\\\----|
A|---X\\\\--X\\\\----|

Fill 4 (Gtr. 2)
G|--1^--(1)--|-%-|
     ^ bend ½ step up then back down to bracketed 1

Bridge
D|-0-0-0-0--0-0-0-0--00-0-0-0--|
A|-0-0-0-0--0-0-0-0--00-0-0-0--|
D|-0-0-0-0--0-0-0-0--00-0-0-0--|

Song Structure: -
Electronic Drums
Intro
Verse ("Thoughts of prison…")
Pre-Chorus ("I’ve already lost much more…")
Fill 1
Chorus
Post-Chorus (Gtr. 1)/Fill 2 (Gtr. 2)
Verse ("I’ve already told you once….")
Fill 3 ("Let me be….")
Chorus
Fill 1 (Gtr. 1)/Fill 4 (Gtr. 2)
Bridge ("And we pledge allegiance to the flag….")
Chorus
Post-Chorus (Gtr. 1)/Fill 2 (Gtr. 2)
Post-Chorus
            
Submit corrections

comments powered by Disqus
↑ Back to top | Dope Tabs for America The Pitiful. Lyrics for acoustic guitar and electric guitar. Tablatures and chords are parodies/interpretations of the original songs. You may use it for private study, scholarship, research or language learning purposes only