>
 >
Please Don't Bend

Please Don't Bend Guitar Tabs

Donovan - Please Don't Bend chords, tabs, tablatures, lyrics

Guitar lessons | Add/correct | Request | Top 50 tabs Artists:  A B C D E F G H I J K L M N O P Q R S T U V W X Y Z 0-9

Please Don't Bend Guitar Tabs – Donovan

CD, Sheet music, Poster

Do you like Please Don't Bend? Share with your friends now
Tabs
#------------------------------------------------------------------------------##

                                PLEASE DON'T BEND
                             As recorded by Donovan


Gtr I (E A D G B E) - 'Gtr. 1'

  Q=145
 4/4
  Gtr I
  Q  Q  E E Q     E E E  E E E E E   E E E E E E Q    H    Q  Q
|---------------|------------------|----------------|-0-----------|
|---------------|--------0-------0-|-------0--------|-------------|
|---------0-----|---0--------0-----|---0-------0----|-------------|
|----2------4/--|-----5\-------4---|-----2-------0--|-------------|
|---------------|------------------|----------------|-------------|
|-0-----0-------|-0--------0-------|-0-------0------|-0----3--2---|


  Q  Q  E E Q     E E E  E E E Q    E E E E E E Q    H    H
|---------------|-----------------|----------------|-0---------|
|---------------|--------0--------|-------0--------|-----------|
|---------0-----|---0--------0----|---0-------0----|-----------|
|----2------4/--|-----5\-------4--|-----2-------0--|-----------|
|---------------|-----------------|----------------|-----------|
|-0-----0-------|-0--------0------|-0-------0------|-0---------|


  Q  Q  E E E E   E E E E E E E E   Q  E E E E E E   Q  Q  E E E E
|---------------|-----------------|----------------|---------------|
|-------------0-|-------0---------|----------2-----|-------------0-|
|---------0-----|-----------0---0-|-2----2-------2-|----0----0-----|
|-------0-------|-----0-------0---|----2-------2---|----2----------|
|-----------0---|---2-------------|-0------0-------|---------------|
|-0--3----------|-3-------3-------|----------------|-0-----0---2---|


  E E E E E E E E   Q  E E E E E E   Q  E E E E E E   H    H
|-----------------|----------------|----------------|-0---------|
|-------0-------0-|----3-----0-----|----------0-----|-----------|
|---0-------0-----|------2-------0-|------0-------0-|-----------|
|-----0-----------|----------------|----2-------2---|-----------|
|---------0---2---|-0--------------|----------------|-----------|
|-3---------------|--------3---2---|-0------0-------|-0---------|


  Q  Q  E E E E   E E E E E E E E   Q  E E E E E E   Q  Q  E E E E
|---------------|-----------------|----------------|---------------|
|-------------0-|-------0---------|----------2-----|----0--------0-|
|---------0-----|-----------0---0-|-2----2-------2-|---------0-----|
|-------0-------|-----0-------0---|----2-------2---|----2----------|
|-----------0---|---2-------------|-0------0-------|---------------|
|-0--3----------|-3-------3-------|----------------|-0-----0---2---|


  E E E E E E E E   Q  E E E E E E   Q  E E E E E E   H    H
|-----------------|----------------|----------------|-0---------|
|-------0-------0-|----3-----0-----|----------0-----|-----------|
|---0-------0-----|------2-------0-|------0-------0-|-----------|
|-----0-----------|----------------|----2-------2---|-----------|
|---------0---2---|-0--------------|----------------|-----------|
|-3---------------|--------3---2---|-0------0-------|-0---------|


  Q  E E E E E E   E E E E E E E E   Q  Q  E E E E   E E E E E E E E
|----0-----2-----|-3-----2---0-----|---------------|-----------------|
|------0---------|---0-----------0-|----2--------2-|-------0-------0-|
|--------------0-|-----------------|---------2-----|---0-------0-----|
|----2-------2---|-----2-------2---|----2------2---|-----0-------0---|
|----------------|-----------------|-0-----0-------|-----------------|
|-0------0-------|-0-------0-------|---------------|-3-------2-------|


  E E E E E E E E   E E E E E E E E   Q  Q  E E E E   E E E E E E E E
|-----------2-----|-3-----2---0-----|-------0h2---2-|-----------------|
|-------0-------0-|---0-------------|---------------|-0h2---2-------2-|
|---0-------------|---------------0-|----2----------|-----------2-----|
|-----2-------2---|-----2-------2---|-0---------0---|-----2-------2---|
|-----------------|-----------------|-------0-------|-0-------0-------|
|-0-------0-------|-0-------0-------|---------------|-----------------|


  E E E E E E E E   E E E E E E Q    Q  Q  E E E E   E E E E E E E E
|-------0---2-----|-3-----2---0----|---------------|-----------------|
|---------------0-|---0------------|----2--------2-|-------0-------0-|
|---0-------------|----------------|---------2-----|---0-------0-----|
|-----2-------2---|-----2-------2--|----2------2---|-----0-------0---|
|-----------------|----------------|-0-----0-------|-----------------|
|-0-------0-------|-0-------0------|---------------|-3-------2-------|


  E E E E E E E E   E E E E E E E E   Q  Q  E E E E   E E E E E E E E
|-----------2-----|-3-----2---0-----|-------0h2---2-|-----------------|
|-------0-------0-|---0-------------|---------------|-0h2---2-------2-|
|---0-------------|---------------0-|----2----------|-----------2-----|
|-----2-------2---|-----2-------2---|-0---------0---|-----2-------2---|
|-----------------|-----------------|-------0-------|-0-------0-------|
|-0-------0-------|-0-------0-------|---------------|-----------------|


  Q  E E E E E E   E E E E E E E E   Q  E E E E Q    Q  Q  E E E E
|----------------|-----------------|---------------|---------------|
|----0h1---1-----|-------0-------0-|----------3----|----1--------1-|
|--------------0-|---0-------0-----|------3--------|---------0-----|
|----2-------2---|-----0-------0---|-3------3---3--|----2------2---|
|-3------3-------|-----------------|----5----------|-3-------------|
|----------------|-3-------3-------|---------------|-------3-------|


  E E E E E E E E   Q  Q  Q  Q    Q  Q  E E Q     E E E  E E E E E
|-----------------|-------------|---------------|------------------|
|-------0-----0h1-|-0-----------|---------------|--------0-------0-|
|---0-------0-----|-------------|---------0-----|---0--------0-----|
|-----0-------0---|-------------|----2------4/--|-----5\-------4---|
|-----------------|-------------|---------------|------------------|
|-3-------3-------|-3-----3--2--|-0-----0-------|-0--------0-------|


  E E E E E E Q    H    Q  Q    Q  Q  E E Q     E E E  E E E E E
|----------------|-0----------|---------------|------------------|
|-------0--------|------------|---------------|--------0-------0-|
|---0-------0----|------------|---------0-----|---0--------0-----|
|-----2-------0--|------------|----2------4/--|-----5\-------4---|
|----------------|------------|---------------|------------------|
|-0-------0------|-0----3--2--|-0-----0-------|-0--------0-------|


  E E E E E E Q    H    H      Q  Q  E E E E   E E E E E E E E
|----------------|-0---------|---------------|-----------------|
|-------0--------|-----------|-------------0-|-------0---------|
|---0-------0----|-----------|---------0-----|-----------0---0-|
|-----2-------0--|-----------|-------0-------|-----0-------0---|
|----------------|-----------|-----------0---|---2-------------|
|-0-------0------|-0---------|-0--3----------|-3-------3-------|


  Q  E E E E E E   Q  Q  E E E E   E E E E E E E E   Q  E E E E E E
|----------------|---------------|-----------------|----------------|
|----------2-----|-------------0-|-------0-------0-|----3-----0-----|
|-2----2-------2-|----0----0-----|---0-------0-----|------2-------0-|
|----2-------2---|----2----------|-----0-----------|----------------|
|-0------0-------|---------------|---------0---2---|-0--------------|
|----------------|-0-----0---2---|-3---------------|--------3---2---|


  Q  E E E E E E   H    H      Q  Q  E E E E   E E E E E E E E
|----------------|-0---------|---------------|-----------------|
|----------0-----|-----------|-------------0-|-------0---------|
|------0-------0-|-----------|---------0-----|-----------0---0-|
|----2-------2---|-----------|-------0-------|-----0-------0---|
|----------------|-----------|-----------0---|---2-------------|
|-0------0-------|-0---------|-0--3----------|-3-------3-------|


  Q  E E E E E E   Q  Q  E E E E   E E E E E E E E   Q  E E E E E E
|----------------|---------------|-----------------|----------------|
|----------2-----|----0--------0-|-------0-------0-|----3-----0-----|
|-2----2-------2-|---------0-----|---0-------0-----|------2-------0-|
|----2-------2---|----2----------|-----0-----------|----------------|
|-0------0-------|---------------|---------0---2---|-0--------------|
|----------------|-0-----0---2---|-3---------------|--------3---2---|


  Q  E E E E E E   H    H      Q  E E E E E E   E E E E E E E E
|----------------|-0---------|----0-----2-----|-3-----2---0-----|
|----------0-----|-----------|------0---------|---0-----------0-|
|------0-------0-|-----------|--------------0-|-----------------|
|----2-------2---|-----------|----2-------2---|-----2-------2---|
|----------------|-----------|----------------|-----------------|
|-0------0-------|-0---------|-0------0-------|-0-------0-------|


  Q  Q  E E E E   E E E E E E E E   E E E E E E E E   E E E E E E E E
|---------------|-----------------|-----------2-----|-3-----2---0-----|
|----2--------2-|-------0-------0-|-------0-------0-|---0-------------|
|---------2-----|---0-------0-----|---0-------------|---------------0-|
|----2------2---|-----0-------0---|-----2-------2---|-----2-------2---|
|-0-----0-------|-----------------|-----------------|-----------------|
|---------------|-3-------2-------|-0-------0-------|-0-------0-------|


  Q  Q  E E E E   E E E E E E E E   E E E E E E E E   E E E E E E Q
|-------0h2---2-|-----------------|-------0---2-----|-3-----2---0----|
|---------------|-0h2---2-------2-|---------------0-|---0------------|
|----2----------|-----------2-----|---0-------------|----------------|
|-0---------0---|-----2-------2---|-----2-------2---|-----2-------2--|
|-------0-------|-0-------0-------|-----------------|----------------|
|---------------|-----------------|-0-------0-------|-0-------0------|


  Q  Q  E E E E   E E E E E E E E   E E E E E E E E   E E E E E E E E
|---------------|-----------------|-----------2-----|-3-----2---0-----|
|----2--------2-|-------0-------0-|-------0-------0-|---0-------------|
|---------2-----|---0-------0-----|---0-------------|---------------0-|
|----2------2---|-----0-------0---|-----2-------2---|-----2-------2---|
|-0-----0-------|-----------------|-----------------|-----------------|
|---------------|-3-------2-------|-0-------0-------|-0-------0-------|


  Q  Q  E E E E   E E E E E E E E   Q  E E E E E E   E E E E E E E E
|-------0h2---2-|-----------------|----------------|-----------------|
|---------------|-0h2---2-------2-|----0h1---1-----|-------0-------0-|
|----2----------|-----------2-----|--------------0-|---0-------0-----|
|-0---------0---|-----2-------2---|----2-------2---|-----0-------0---|
|-------0-------|-0-------0-------|-3------3-------|-----------------|
|---------------|-----------------|----------------|-3-------3-------|


  Q  E E E E Q    Q  Q  E E E E   E E E E E E E E   Q  Q  Q  Q
|---------------|---------------|-----------------|-------------|
|----------3----|----1--------1-|-------0-----0h1-|-0-----------|
|------3--------|---------0-----|---0-------0-----|-------------|
|-3------3---3--|----2------2---|-----0-------0---|-------------|
|----5----------|-3-------------|-----------------|-------------|
|---------------|-------3-------|-3-------3-------|-3-----3--2--|


  Q  Q  E E Q     E E E  E E E E E   E E E E E E Q    Q  Q  Q  Q
|---------------|------------------|----------------|-0-----------|
|---------------|--------0-------0-|-------0--------|-------------|
|---------0-----|---0--------0-----|---0-------0----|-------------|
|----2------4/--|-----5\-------4---|-----2-------0--|-------------|
|---------------|------------------|----------------|-------------|
|-0-----0-------|-0--------0-------|-0-------0------|-0-----3--2--|


  Q  Q  E E Q     E E E  E E E E E   E E E E E E Q    H    H
|---------------|------------------|----------------|-0---------|
|---------------|--------0-------0-|-------0--------|-----------|
|---------0-----|---0--------0-----|---0-------0----|-----------|
|----2------4/--|-----5\-------4---|-----2-------0--|-----------|
|---------------|------------------|----------------|-----------|
|-0-----0-------|-0--------0-------|-0-------0------|-0---------|


  Q  Q  E E E E   E E E E E E E E   Q  E E E E E E   Q  Q  E E E E
|---------------|-----------------|----------------|---------------|
|-------------0-|-------0---------|----------2-----|-------------0-|
|---------0-----|-----------0---0-|-2----2-------2-|----0----0-----|
|-------0-------|-----0-------0---|----2-------2---|----2----------|
|-----------0---|---2-------------|-0------0-------|---------------|
|-0--3----------|-3-------3-------|----------------|-0-----0---2---|


  E E E E E E E E   Q  E E E E E E   Q  E E E E E E   H    H
|-----------------|----------------|----------------|-0---------|
|-------0-------0-|----3-----0-----|----------0-----|-----------|
|---0-------0-----|------2-------0-|------0-------0-|-----------|
|-----0-----------|----------------|----2-------2---|-----------|
|---------0---2---|-0--------------|----------------|-----------|
|-3---------------|--------3---2---|-0------0-------|-0---------|


  Q  Q  E E E E   E E E E E E E E   Q  E E E E E E   Q  Q  E E E E
|---------------|-----------------|----------------|---------------|
|-------------0-|-------0---------|----------2-----|----0--------0-|
|---------0-----|-----------0---0-|-2----2-------2-|---------0-----|
|-------0-------|-----0-------0---|----2-------2---|----2----------|
|-----------0---|---2-------------|-0------0-------|---------------|
|-0--3----------|-3-------3-------|----------------|-0-----0---2---|


  E E E E E E E E   Q  E E E E E E   Q  E E E E E E   H    H
|-----------------|----------------|----------------|-0---------|
|-------0-------0-|----3-----0-----|----------0-----|-----------|
|---0-------0-----|------2-------0-|------0-------0-|-----------|
|-----0-----------|----------------|----2-------2---|-----------|
|---------0---2---|-0--------------|----------------|-----------|
|-3---------------|--------3---2---|-0------0-------|-0---------|


  Q  E E E E E E   E E E E E E E E   Q  Q  E E E E   E E E E E E E E
|----0-----2-----|-3-----2---0-----|---------------|-----------------|
|------0---------|---0-----------0-|----2--------2-|-------0-------0-|
|--------------0-|-----------------|---------2-----|---0-------0-----|
|----2-------2---|-----2-------2---|----2------2---|-----0-------0---|
|----------------|-----------------|-0-----0-------|-----------------|
|-0------0-------|-0-------0-------|---------------|-3-------2-------|


  E E E E E E E E   E E E E E E E E   Q  Q  E E E E   E E E E E E E E
|-----------2-----|-3-----2---0-----|-------0h2---2-|-----------------|
|-------0-------0-|---0-------------|---------------|-0h2---2-------2-|
|---0-------------|---------------0-|----2----------|-----------2-----|
|-----2-------2---|-----2-------2---|-0---------0---|-----2-------2---|
|-----------------|-----------------|-------0-------|-0-------0-------|
|-0-------0-------|-0-------0-------|---------------|-----------------|


  E E E E E E E E   E E E E E E Q    Q  Q  E E E E   E E E E E E E E
|-------0---2-----|-3-----2---0----|---------------|-----------------|
|---------------0-|---0------------|----2--------2-|-------0-------0-|
|---0-------------|----------------|---------2-----|---0-------0-----|
|-----2-------2---|-----2-------2--|----2------2---|-----0-------0---|
|-----------------|----------------|-0-----0-------|-----------------|
|-0-------0-------|-0-------0------|---------------|-3-------2-------|


  E E E E E E E E   E E E E E E E E   Q  Q  E E E E   E E E E E E E E
|-----------2-----|-3-----2---0-----|-------0h2---2-|-----------------|
|-------0-------0-|---0-------------|---------------|-0h2---2-------2-|
|---0-------------|---------------0-|----2----------|-----------2-----|
|-----2-------2---|-----2-------2---|-0---------0---|-----2-------2---|
|-----------------|-----------------|-------0-------|-0-------0-------|
|-0-------0-------|-0-------0-------|---------------|-----------------|


  Q  E E E E E E   E E E E E E E E   Q  E E E E Q    Q  Q  E E E E
|----------------|-----------------|---------------|---------------|
|----0h1---1-----|-------0-------0-|----------3----|----1--------1-|
|--------------0-|---0-------0-----|------3--------|---------0-----|
|----2-------2---|-----0-------0---|-3------3---3--|----2------2---|
|-3------3-------|-----------------|----5----------|-3-------------|
|----------------|-3-------3-------|---------------|-------3-------|


  E E E E E E E E   Q  Q  Q  Q    Q  E E E E E  E   E E E  E E E E E
|-----------------|-------------|----0-----0------|---0--------0-----|
|-------0-----0h1-|-0-----------|------0--------0-|--------0-------0-|
|---0-------0-----|-------------|-----------------|------------------|
|-----0-------0---|-------------|----2-------4/---|-----5\-------4---|
|-----------------|-------------|-----------------|------------------|
|-3-------3-------|-3-----3--2--|-0------0--------|-0--------0-------|


  E E E E E E Q    H    H      Q  E E E E E  E   E E E  E E E E E
|---0-------0----|-0---------|----0-----0------|---0--------0-----|
|-------0--------|-----------|------0--------0-|--------0-------0-|
|----------------|-----------|-----------------|------------------|
|-----2-------0--|-----------|----2-------4/---|-----5\-------4---|
|----------------|-----------|-----------------|------------------|
|-0-------0------|-0---------|-0------0--------|-0--------0-------|


  E E E E E E Q    W
|---0-------0----|-0----*|
|-------0--------|------*|
|----------------|------*|
|-----2-------0--|------*|
|----------------|------*|
|-0-------0------|-0----*|


Duration Legend
---------------
W - whole; H - half; Q - quarter; E - 8th; S - 16th; T - 32nd; X - 64th; a - acciaccatura
+ - note tied to previous; . - note dotted; .. - note double dotted
Uncapitalized letters represent notes that are staccato (1/2 duration)
Irregular groupings are notated above the duration line
Duration letters will always appear directly above the note/fret number it represents the
duration for.  Duration letters with no fret number below them represent rests.  Multi-
bar rests are notated in the form Wxn, where n is the number of bars to rest for.  Low
melody durations appear below the staff

Tablature Legend
----------------
 h   - hammer-on
 p   - pull-off
 b   - bend
 pb  - pre-bend
 r   - bend release (if no number after the r, then release immediately)
 /\  - slide into or out of (from/to "nowhere")
 s   - legato slide
 S   - shift slide
  - natural harmonic
[n]  - artificial harmonic
n(n) - tapped harmonic
 ~   - vibrato
 tr  - trill
 T   - tap
 TP  - trem. picking
 PM  - palm muting
\n/  - tremolo bar dip; n = amount to dip
 \n  - tremolo bar down
 n/  - tremolo bar up
/n\  - tremolo bar inverted dip
 =   - hold bend; also acts as connecting device for hammers/pulls
 <>  - volume swell (louder/softer)
 x   - on rhythm slash represents muted slash
 o   - on rhythm slash represents single note slash

Misc Legend
-----------
 |  - bar
||  - double bar
||o - repeat start
o|| - repeat end
*|  - double bar (ending)
 :  - bar (freetime)
 $  - Segno
 &  - Coda
Tempo markers -  = BPM(8/16=s8/s16), where s8 = swing 8ths, s16 = swing 16ths


***************************************************************************************
***************************************************************************************





Comments


Popular Donovan tabs & chords
Hurdy Gurdy Man 2 Chords
Mellow Yellow 2 Chords
Wear Your Love Like Heaven 3 Chords
Yellow Star Chords
Season Of The Witch Tabs
The Ballad Of A Crystal Man Tabs
Isle Of Islay Ukulele
Jersey Thursday Ukulele
The Summer Day Reflection Song Ukulele
Voyage Into The Golden Screen Ukulele


Song lyrics



↑ Back to top | Tablatures and chords are parodies/interpretations of the original songs. You may use it for private study, scholarship, research or language learning purposes only
© 2014 AZChords.com Contact us | Privacy policy | DMCA | Add/correct tabs | Request tabs | Top 50 tabs