>
 >
London Town

London Town Guitar Tabs

Donovan - London Town chords, tabs, tablatures, lyrics

Guitar lessons | Add/correct | Request | Top 50 tabs Artists:  A B C D E F G H I J K L M N O P Q R S T U V W X Y Z 0-9

London Town Guitar Tabs – Donovan

CD, Sheet music, Poster

Do you like London Town? Share with your friends now
ChordsTabsUkulele
                                  London town                Donovan                   


guitar (Capo 1)
     C                                                  
     Q    E  E  E  E  E  E     E   E  E  E  E  E  Q     
E||-------------------------|--------------------------|
B||--1-------------1--------|--------------------------|
G||----------0-----------0--|------------------0-------|
D||-------2-----------2-----|--2h--3-----2--L-----2----|
A||--3----------3-----------|---------3-----3----------|
E||-------------------------|--------------------------|


  C                                                    C                       
  Q    E  E  E  E  E  E     E   E  E  E  E  E  Q       Q    E  E  E  E  E  E   
-------------------------|--------------------------|-------------------------|
--1-------------1--------|--------------------------|--1-------------1--------|
----------0-----------0--|------------------0-------|----------0-----------0--|
-------2-----------2-----|--2h--3-----2--L-----2----|-------2-----------2-----|
--3----------3-----------|---------3-----3----------|--3----------3-----------|
-------------------------|--------------------------|-------------------------|


                             C                                                  
  E   E  E  E  E  E  Q       Q    E  E  E  E  E  E     E   E  E  E  E  E  Q     
--------------------------|-------------------------|--------------------------|
--------------------------|--1-------------1--------|--------------------------|
------------------0-------|----------0-----------0--|------------------0-------|
--2h--3-----2--L-----2----|-------2-----------2-----|--2h--3-----2--L-----2----|
---------3-----3----------|--3----------3-----------|---------3-----3----------|
--------------------------|-------------------------|--------------------------|


  G7sus4                                              Fsus2                   
  Q      E  E  E  E  Q       Q    E  E  E  E  Q       Q     E  E  E  E  Q     
--------------------------|------------------------|-------------------------|
--1-----------------------|--1---------------------|--1----------------------|
------------0-----0-------|----------0-----0-------|-----------------0-------|
---------3-----------3----|-------3-----------3----|-----------3-------------|
--------------------------|------------------------|--------3-----3-----3----|
--3------------3----------|--3----------3----------|--1----------------------|


                           C                                                  
  Q    E  E  E  E  Q       Q    E  E  E  E  E  E     E   E  E  E  E  E  Q     
------------------------|-------------------------|--------------------------|
--1---------------------|--1-------------1--------|--------------------------|
----------------0-------|----------0-----------0--|------------------0-------|
----------3-------------|-------2-----------2-----|--2h--3-----2--L-----2----|
-------3-----3-----3----|--3----------3-----------|---------3-----3----------|
--1---------------------|-------------------------|--------------------------|


    C                         G7sus4                   
    Q    E  E  E  E  E  E     Q      E  E  E  E  Q     
|--------------------------|--------------------------|
|---1-------------1--------|--1-----------------------|
|*----------0-----------0--|------------0-----0-------|
|*-------2-----------2-----|---------3-----------3----|
|---3----------3-----------|--------------------------|
|--------------------------|--3------------3----------|


  Fsus2                                              C                       
  Q     E  E  E  E  Q       Q    E  E  E  E  Q       Q    E  E  E  E  E  E   
-------------------------|------------------------|-------------------------|
--1----------------------|--1---------------------|--1-------------1--------|
-----------------0-------|----------------0-------|----------0-----------0--|
-----------3-------------|----------3-------------|-------2-----------2-----|
--------3-----3-----3----|-------3-----3-----3----|--3----------3-----------|
--1----------------------|--1---------------------|-------------------------|


                             C                                                  
  E   E  E  E  E  E  Q       Q    E  E  E  E  E  E     E   E  E  E  E  E  Q     
--------------------------|-------------------------|--------------------------|
--------------------------|--1-------------1--------|--------------------------|
------------------0-------|----------0-----------0--|------------------0-------|
--2h--3-----2--L-----2----|-------2-----------2-----|--2h--3-----2--L-----2----|
---------3-----3----------|--3----------3-----------|---------3-----3----------|
--------------------------|-------------------------|--------------------------|


  Fm                                                G7sus4                   
  Q    E  E  E  E  Q       Q    E  E  E  E  Q       Q      E  E  E  E  Q     
------------------------|------------------------|--------------------------|
--1---------------------|--1---------------------|--1-----------------------|
----------1-----0-------|----------1-----0-------|------------------0-------|
-------3-----------3----|-------3-----------3----|------------3-------------|
-------------3----------|-------------3----------|---------3-----3-----3----|
--1---------------------|--1---------------------|--3-----------------------|


                           C                                                  
  Q    E  E  E  E  Q       Q    E  E  E  E  E  E     E   E  E  E  E  E  Q     
------------------------|-------------------------|--------------------------|
--1---------------------|--1-------------1--------|--------------------------|
----------------0-------|----------0-----------0--|------------------0-------|
----------3-------------|-------2-----------2-----|--2h--3-----2--L-----2----|
-------3-----3-----3----|--3----------3-----------|---------3-----3----------|
--3---------------------|-------------------------|--------------------------|


  C                                                    G                      
  Q    E  E  E  E  E  E     E   E  E  E  E  E  Q       Q    E  E  E  E  Q     
-------------------------|--------------------------|--3---------------------|
--1-------------1--------|--------------------------|----------------3-------|
----------0-----------0--|------------------0-------|----------4-------------|
-------2-----------2-----|--2h--3-----2--L-----2----|-------5-----------5----|
--3----------3-----------|---------3-----3----------|------------------------|
-------------------------|--------------------------|--3----------3----------|


                           F                                               
  Q    E  E  E  E  Q       Q    E  E  E  E  Q       Q    E  E  E  E  Q     
--3---------------------|--1---------------------|--1---------------------|
----------------3-------|----------------1-------|----------------1-------|
----------4-------------|----------2-------------|----------2-------------|
-------5-----------5----|-------3-----------3----|-------3-----------3----|
------------------------|------------------------|------------------------|
--3----------3----------|--1----------1----------|--1----------1----------|


  C                                                    C                       
  Q    E  E  E  E  E  E     E   E  E  E  E  E  Q       Q    E  E  E  E  E  E   
-------------------------|--------------------------|-------------------------|
--1-------------1--------|--------------------------|--1-------------1--------|
----------0-----------0--|------------------0-------|----------0-----------0--|
-------2-----------2-----|--2h--3-----2--L-----2----|-------2-----------2-----|
--3----------3-----------|---------3-----3----------|--3----------3-----------|
-------------------------|--------------------------|-------------------------|


                             G7sus4                                            
  E   E  E  E  E  E  Q       Q      E  E  E  E  Q       Q    E  E  E  E  Q     
--------------------------|--------------------------|------------------------|
--------------------------|--1-----------------------|--1---------------------|
------------------0-------|------------------0-------|----------------0-------|
--2h--3-----2--L-----2----|------------3-------------|----------3-------------|
---------3-----3----------|---------3-----3-----3----|-------3-----3-----3----|
--------------------------|--3-----------------------|--3---------------------|


  C                                                    G7sus4                   
  Q    E  E  E  E  E  E     E   E  E  E  E  E  Q       Q      E  E  E  E  Q     
-------------------------|--------------------------|--------------------------|
--1-------------1--------|--------------------------|--1-----------------------|
----------0-----------0--|------------------0-------|------------------0-------|
-------2-----------2-----|--2h--3-----2--L-----2----|------------3-------------|
--3----------3-----------|---------3-----3----------|---------3-----3-----3----|
-------------------------|--------------------------|--3-----------------------|


                           C                                                    
  Q    E  E  E  E  Q       Q    E  E  E  E  E  E     E   E  E  E  E  E  Q     6x
------------------------|-------------------------|---------------------------||
--1---------------------|--1-------------1--------|---------------------------||
----------------0-------|----------0-----------0--|------------------0-------*||
----------3-------------|-------2-----------2-----|--2h--3-----2--L-----2----*||
-------3-----3-----3----|--3----------3-----------|---------3-----3-----------||
--3---------------------|-------------------------|---------------------------||


  C                    
  Q    H        Q      
--0------------------||
--1------------------||
--0------------------||
--2------------------||
--3------------------||
---------------------||




Duration Legend
---------------
W - whole
H - half
Q - quarter
E - 8th
S - 16th
T - 32nd
X - 64th
. - note dotted
|-n-|  - n-tuplets


Tablature Legend
----------------
L - tied note
x - dead note
g - grace note
(n) - ghost note
> - accentuded note
NH - natural harmonic
AH - artificial harmonic
TH - tapped harmonic
SH - semi harmonic
PH - pitch harmonic
h - hammer on
p - pull off
b - bend
br - bendRelease
pb - preBend
pbr - preBendRelease
brb - bendReleaseBend
\n/ - tremolo bar dip
\n - tremolo bar dive
-/n - tremolo bar Release up
/n\ - tremolo bar inverted dip
/n - tremolo bar return
-\n - tremolo bar Release down
S - shift slide
s - legato slide
/ -  slide into from below or out of upwards
\ -  slide into from above or out of downwards
~ - vibrato
W - wide vibrato
tr - trill
TP - tremolo picking
T - tapping
S - slap
P - pop
< - fade in
^ - brush up
v - brush down





Comments


Popular Donovan tabs & chords
Season Of The Witch 3 Bass Tabs
Brother Sun Sister Moon Chords
Colours 1 Chords
Jennifer Juniper 1 Chords
People Used To Chords
Colours Tabs
River Song Tabs
Widow With A Shawl Tabs
Sadness Ukulele
There Was A Time Ukulele


Song lyrics



↑ Back to top | Tablatures and chords are parodies/interpretations of the original songs. You may use it for private study, scholarship, research or language learning purposes only
© 2014 AZChords.com Contact us | Privacy policy | DMCA | Add/correct tabs | Request tabs | Top 50 tabs