» » »

Donovan, Guinevere Tabs (ver.1)

Artists:  A B C D E F G H I J K L M N O P Q R S T U V W X Y Z # 

Guinevere Tabs (ver.1)

Donovan Tabs
Rating:
5/5 (1 vote)
Guinevere lessons Tabs too difficult? Try these video lessons and learn fast
                    GUINEVERE  (Donovan)

guitar
     D                    Gm                   C          A#      D
E||-----------2--------|-----------3--------|------------------|--2------------|
B||--------3-----3-----|--------3-----3-----|--------5----3----|--3------------|
G||-----2-----------2--|-----3-----------3--|--------5----3----|--2------------|
D||--0-----------------|--------------------|-----5--5----3----|--0------------|
A||--------------------|--------------------|--3-----3----1----|---------------|
E||--------------------|--3-----------------|------------------|---------------|

--------------|-----------2--------|-----------3--------|------------------|
--------------|--------3-----3-----|--------3-----3-----|--------5----3----|
--------------|-----2-----------2--|-----3-----------3--|--------5----3----|
--------------|--0-----------------|--------------------|-----5--5----3----|
--------------|--------------------|--------------------|--3-----3----1----|
--------------|--------------------|--3-----------------|------------------|

--2------------|--------------||------------2--------|-----------3--------|
--3------------|--------------||---------3-----3-----|--------3-----3-----|
--2------------|--------------||*-----2-----------2--|-----3-----------3--|
--0------------|--------------||*--0-----------------|--------------------|
---------------|--------------||---------------------|--------------------|
---------------|--------------||---------------------|--3-----------------|

------------------|--2------------|--------------|-----------2--------|
--------5----3----|--3------------|--------------|--------3-----3-----|
--------5----3----|--2------------|--------------|-----2-----------2--|
-----5--5----3----|--0------------|--------------|--0-----------------|
--3-----3----1----|---------------|--------------|--------------------|
------------------|---------------|--------------|--------------------|

-----------3--------|------------------|--2------------|--------------|
--------3-----3-----|--------5----3----|--3------------|--------------|
-----3-----------3--|--------5----3----|--2------------|--------------|
--------------------|-----5--5----3----|--0------------|--------------|
--------------------|--3-----3----1----|---------------|--------------|
--3-----------------|------------------|---------------|--------------|

-----------2--------|-----------3--------|------------------|--2------------|
--------3-----3-----|--------3-----3-----|--------5----3----|--3------------|
-----2-----------2--|-----3-----------3--|--------5----3----|--2------------|
--0-----------------|--------------------|-----5--5----3----|--0------------|
--------------------|--------------------|--3-----3----1----|---------------|
--------------------|--3-----------------|------------------|---------------|

--------------|-----------2--------|-----------3--------|------------------|
--------------|--------3-----3-----|--------3-----3-----|--------5----3----|
--------------|-----2-----------2--|-----3-----------3--|--------5----3----|
--------------|--0-----------------|--------------------|-----5--5----3----|
--------------|--------------------|--------------------|--3-----3----1----|
--------------|--------------------|--3-----------------|------------------|


                                 D                    Dm
--2------------|--------------|-----------2--------|-----------1--------|
--3------------|--------------|--------3-----3-----|--------3-----3-----|
--2------------|--------------|-----2-----------2--|-----2-----------2--|
--0------------|--------------|--0-----------------|--0-----------------|
---------------|--------------|--------------------|--------------------|
---------------|--------------|--------------------|--------------------|


  Dm7                  Gm
-----------1--------|-----------3--------|-----------2--------|
--------1-----1-----|--------3-----3-----|--------3-----3-----|
-----2-----------2--|-----3-----------3--|-----2-----------2--|
--0-----------------|--------------------|--0-----------------|
--------------------|--------------------|--------------------|
--------------------|--3-----------------|--------------------|


                                                                       4x
-----------3--------|------------------|--2------------|---------------||
--------3-----3-----|--------5----3----|--3------------|---------------||
-----3-----------3--|--------5----3----|--2------------|--------------*||
--------------------|-----5--5----3----|--0------------|--------------*||
--------------------|--3-----3----1----|---------------|---------------||
--3-----------------|------------------|---------------|---------------||
            

comments powered by Disqus
↑ Back to top | Donovan Tabs for Guinevere. Lyrics for acoustic guitar and electric guitar. Tablatures and chords are parodies/interpretations of the original songs. You may use it for private study, scholarship, research or language learning purposes only