>
 >
The Last Worthless Evening

The Last Worthless Evening Guitar Tabs

Don Henley - The Last Worthless Evening chords, tabs, tablatures, lyrics

Guitar lessons | Add/correct | Request | Top 50 tabs Artists:  A B C D E F G H I J K L M N O P Q R S T U V W X Y Z 0-9

The Last Worthless Evening Guitar Tabs – Don Henley

CD, Sheet music, Poster

Do you like The Last Worthless Evening? Share with your friends now
Bass TabsChordsChords v2TabsUkulele
-----------------------------------------------------------------------------
                                  
            
-----------------------------------------------------------------------------

Tuning: CAPO on 1st fret (or you can tune all guitars up one half step)

=============================================================================

      
Guitar 1 (Capo 1)


                   
     Q                                 Q    E  E  E  E   
E||--0---------------------------------0----0--0--0--0--|
B||--0---------------------------------0----0--0--0--0--|
G||--2---------------------------------2----2--2--2--2--|
D||--2---------------------------------2----2--2--2--4--|
A||--0---------------------------------0----0--0--0--0--|
E||-----------------------------------------------------|


  E  E  Q    E  E  E  E     Q    Q    E  E  E  E     E  E  Q    E  E  E  E   
--L--0--0----0--0--0-----|--0----0----0--0--0--0--|--L--0--0----0--0--0-----|
--L--0--0----0--0--0--0--|--0----0----0--0--0--0--|--0--0--0----0--0--0--0--|
--L--2--2----2--2--2--x--|--2----2----2--2--2--2--|--2--2--2----2--2--2--x--|
--L--4--4----4--4--4--x--|--2----2----2--2--2--4--|--L--4--4----4--4--4--x--|
--L--0--0----0--0--0--0--|--0----0----0--0--0--0--|--L--0--0----0--0--0--0--|
-------------------------|------------------------|-------------------------|


  Q    Q    E  E  E  E     E  E  Q    E  E  E  E     Q    Q    E  E  E  E   
--0----0----0--0--0--0--|--L--0--0----0--0--0-----|--0----0----0--0--0--0--|
--0----0----0--0--0--0--|--L--0--0----0--0--0--0--|--0----0----0--0--0--0--|
--2----2----2--2--2--2--|--L--2--2----2--2--2--x--|--2----2----2--2--2--2--|
--2----2----2--2--2--4--|--L--4--4----4--4--4--x--|--2----2----2--2--2--4--|
--0----0----0--0--0--0--|--L--0--0----0--0--0--0--|--0----0----0--0--0--0--|
------------------------|-------------------------|------------------------|


  E  E  Q    E  E  E  E     Q    Q    E  E  E  E     E  E  Q    E  E  E  E   
--L--0--0----0--0--0-----|--2----2----2--2--------|-------------------------|
--L--0--0----0--0--0--0--|--2----2----2--2--2--4--|--L--4--4----4--4--4--0--|
--L--2--2----2--2--2--x--|--4----4----4--4--4--4--|--L--4--4----4--4--4--x--|
--L--4--4----4--4--4--x--|--4----4----4--4--4--4--|--L--4--4----4--4--4--x--|
--L--0--0----0--0--0--0--|--2----2----2--2--2--2--|--L--2--2----2--2--2--2--|
-------------------------|------------------------|-------------------------|


  Q    Q    E  E  E  E     E  E  Q    E  E  E  E     Q    E  E  E  E  E  E   
--2----2----2--2--------|-------------------------|--0-------0-----0--------|
--2----2----2--2--2--4--|--L--4--4----4--4--4--0--|--0----0--0--0--0--0--0--|
--4----4----4--4--4--4--|--L--4--4----4--4--4--x--|--1----1--1--1--1--1--1--|
--4----4----4--4--4--4--|--L--4--4----4--4--4--x--|--2----2--2--2--2--2--2--|
--2----2----2--2--2--2--|--L--2--2----2--2--2--2--|--2----2--2--2--2--2--2--|
------------------------|-------------------------|--0----0--0--0--0--0--0--|


  E  E  E  E  E  E  E  E     Q    E  E  E  E  E  E     E  E  E  E  E  E  E  E   
--------0-----0--------0--|--L-------0-----0--------|--------0-----0-----------|
--L--0--0--0--0--0--L--0--|--L----0--0--0--0--0--0--|--L--0--0--0--0--0--0--0--|
--L--1--1--1--1--2--L--1--|--L----1--1--1--x--x--1--|--L--1--1--1--1--x--x--1--|
--L--2--2--2--2--2--L--2--|--L----2--2--2--4--4--2--|--L--2--2--2--2--4--4--2--|
--L--2--2--2--2--2--L--2--|--L----2--2--2--2--2--2--|--L--2--2--2--2--2--2--2--|
--L--0--0--0--0--0--L--0--|--L----0--0--0--0--0--0--|--L--0--0--0--0--0--0--0--|


  Q    E  E  E  E  E  E     Q    E  E  E  E  E  E     Q    Q.     E  E  E   
----------0--------------|--0-------0-----0--------|-----------------------|
--L----0--0--0--0--0--0--|--0----0--0--0--0--0--0--|--4----4------4--2--2--|
--L----1--1--1--x--x--1--|--1----1--1--1--1--1--1--|--2----2------2--2--2--|
--L----2--2--2--4--4--2--|--2----2--2--2--2--2--2--|--4----4------4--4--4--|
--L----2--2--2--2--2--2--|--2----2--2--2--2--2--2--|--2----2------2--2--2--|
--L----0--0--0--0--0--0--|--0----0--0--0--0--0--0--|-----------------------|


  E  E  Q    E  E  E  E     E  E  Q    E  E  E  E     E  E  Q    E  E  E  E   
-------------------------|--4--4--4----4--4--4--4--|--4--4--4----4--4--4--4--|
--4--4--4----4--4--4-----|--5--5--5----5--5--5--5--|--5--5--5----5--5--5--5--|
--4--4--4----4--4--4--0--|--6--6--6----6--6--6--6--|--6--6--6----6--6--6--6--|
--4--4--4----4--4--4--0--|--6--6--6----6--6--6--6--|--6--6--6----6--6--6--6--|
--2--2--2----2--2--2-----|--4--4--4----4--4--4--4--|--4--4--4----4--4--4--4--|
-------------------------|-------------------------|-------------------------|


  E  E  Q    E  E  E  E     E  E  Q    E  E  E  E     E  E  Q    E  E  E  E   
-------------------------|-------------------------|--4--4--4----4--4--4--4--|
--3--3--3----3--3--3--2--|--2--2--2----2--2--2--2--|--5--5--5----5--5--5--5--|
--2--2--2----2--2--2--2--|--2--2--2----2--2--2--2--|--6--6--6----6--6--6--6--|
--4--4--4----4--4--4--2--|--2--2--2----2--2--2--2--|--6--6--6----6--6--6--6--|
--0--0--0----0--0--0--0--|--0--0--0----0--0--0--0--|--4--4--4----4--4--4--4--|
-------------------------|-------------------------|-------------------------|


  E  E  Q    E  E  E  E     Q    Q    E  E  E  E     E  E  Q    E  E  Q     
--4--4--4----4--4--4--4--|--2----2----2--2--2--2--|------------------------|
--5--5--5----5--5--5--5--|--3----3----3--3--3--3--|--4--4--4----4--4--4----|
--6--6--6----6--6--6--6--|--2----2----2--2--2--2--|--4--4--4----4--4--4----|
--6--6--6----6--6--6--6--|--0----0----0--0--0--0--|--4--4--4----4--4--4----|
--4--4--4----4--4--4--4--|------------------------|--2--2--2----2--2--2----|
-------------------------|------------------------|------------------------|


  Q    E  E  E  E  E  E     E  E  E  E  E  E  E  E     Q    E  E  E  E  E  E   
--0-------0-----0--------|--------0-----0--------0--|--L-------0-----0--------|
--0----0--0--0--0--0--0--|--L--0--0--0--0--0--L--0--|--L----0--0--0--0--0--0--|
--1----1--1--1--1--1--1--|--L--1--1--1--1--2--L--1--|--L----1--1--1--x--x--1--|
--2----2--2--2--2--2--2--|--L--2--2--2--2--2--L--2--|--L----2--2--2--4--4--2--|
--2----2--2--2--2--2--2--|--L--2--2--2--2--2--L--2--|--L----2--2--2--2--2--2--|
--0----0--0--0--0--0--0--|--L--0--0--0--0--0--L--0--|--L----0--0--0--0--0--0--|


  E  E  E  E  E  E  E  E     Q    E  E  E  E  E  E     Q    E  E  E  E  E  E   
--------0-----0-----------|----------0--------------|--0-------0-----0--------|
--L--0--0--0--0--0--0--0--|--L----0--0--0--0--0--0--|--0----0--0--0--0--0--0--|
--L--1--1--1--1--x--x--1--|--L----1--1--1--x--x--1--|--1----1--1--1--1--1--1--|
--L--2--2--2--2--4--4--2--|--L----2--2--2--4--4--2--|--2----2--2--2--2--2--2--|
--L--2--2--2--2--2--2--2--|--L----2--2--2--2--2--2--|--2----2--2--2--2--2--2--|
--L--0--0--0--0--0--0--0--|--L----0--0--0--0--0--0--|--0----0--0--0--0--0--0--|


  Q    Q.     E  E  E     E  E  Q    E  E  E  E     E  E  Q    E  E  E  E   
-----------------------|-------------------------|--4--4--4----4--4--4--4--|
--4----4------4--2--2--|--4--4--4----4--4--4-----|--5--5--5----5--5--5--5--|
--2----2------2--2--2--|--4--4--4----4--4--4--0--|--6--6--6----6--6--6--6--|
--4----4------4--4--4--|--4--4--4----4--4--4--0--|--6--6--6----6--6--6--6--|
--2----2------2--2--2--|--2--2--2----2--2--2-----|--4--4--4----4--4--4--4--|
-----------------------|-------------------------|-------------------------|


  E  E  Q    E  E  E  E     E  E  Q    E  E  E  E     E  E  Q    E  E  E  E   
--4--4--4----4--4--4--4--|-------------------------|-------------------------|
--5--5--5----5--5--5--5--|--3--3--3----3--3--3--2--|--2--2--2----2--2--2--2--|
--6--6--6----6--6--6--6--|--2--2--2----2--2--2--2--|--2--2--2----2--2--2--2--|
--6--6--6----6--6--6--6--|--4--4--4----4--4--4--2--|--2--2--2----2--2--2--2--|
--4--4--4----4--4--4--4--|--0--0--0----0--0--0--0--|--0--0--0----0--0--0--0--|
-------------------------|-------------------------|-------------------------|


  E  E  Q    E  E  E  E     E  E  Q    E  E  E  E     Q    Q    E  E  E  E   
--4--4--4----4--4--4--4--|--4--4--4----4--4--4--4--|--2----2----2--2--2-----|
--5--5--5----5--5--5--5--|--5--5--5----5--5--5--5--|--3----3----3--3--3-----|
--6--6--6----6--6--6--6--|--6--6--6----6--6--6--6--|--2----2----2--2--2--0--|
--6--6--6----6--6--6--6--|--6--6--6----6--6--6--6--|--0----0----0--0--0--0--|
--4--4--4----4--4--4--4--|--4--4--4----4--4--4--4--|------------------------|
-------------------------|-------------------------|------------------------|


  E  E  Q    E  E  Q       Q    Q    E  E  E  E     Q    Q    E  E  E  E   
------------------------|--0----0----0--0--0--0--|--0----0----0--0--0--0--|
--4--4--4----4--4--4----|--0----0----0--0--0--0--|--0----0----0--0--0--0--|
--4--4--4----4--4--4----|--1----1----1--1--1--1--|--1----1----1--1--1--1--|
--4--4--4----4--4--4----|--2----2----2--2--2--2--|--2----2----2--2--2--2--|
--2--2--2----2--2--2----|--2----2----2--2--2--2--|--2----2----2--2--2--2--|
------------------------|--0----0----0--0--0--0--|--0----0----0--0--0--0--|


  E  E  Q    E  E  E  E     E  E  Q    E  E  E  E     Q    Q    E  E  E  E   
--0--0--0----0--0--0--0--|--0--0--0----0--0--0--0--|------------------------|
--2--2--2----2--2--2--2--|--2--2--2----2--2--2--2--|--5----5----5--5--5--4--|
--2--2--2----2--2--2--2--|--2--2--2----2--2--2--2--|--4----4----4--4--4--4--|
--2--2--2----2--2--2--2--|--2--2--2----2--2--2--2--|--4----4----4--4--4--4--|
--0--0--0----0--0--0--0--|--0--0--0----0--0--0--0--|--2----2----2--2--2--2--|
-------------------------|-------------------------|------------------------|


  E  E  Q    E  E  E  E     E  E  E  E  E  E  E  E     E  E  E  E  E  E  E  E   
-------------------------|--0--0--0--0--0--0--0--0--|--0--0--0--0--0--0--0--0--|
--4--4--4----4--4--4--4--|--0--0--0--0--0--0--0--0--|--0--0--0--0--0--0--0--0--|
--4--4--4----4--4--4--4--|--1--1--1--1--1--1--1--1--|--1--1--1--1--1--1--1--1--|
--4--4--4----4--4--4--4--|--2--2--2--2--2--2--2--2--|--2--2--2--2--2--2--2--2--|
--2--2--2----2--2--2--2--|--2--2--2--2--2--2--2--2--|--2--2--2--2--2--2--2--2--|
-------------------------|--0--0--0--0--0--0--0--0--|--0--0--0--0--0--0--0--0--|


  Q    Q    E  E  E  E     Q    Q    E  E  E  E     E  E  Q    E  E  E  E   
--0----0----0--0--0--0--|--0----0----0--0--0--0--|--0--0--0----0--0--0--0--|
--0----0----0--0--0--0--|--0----0----0--0--0--0--|--2--2--2----2--2--2--2--|
--1----1----1--1--1--1--|--1----1----1--1--1--1--|--2--2--2----2--2--2--2--|
--2----2----2--2--2--2--|--2----2----2--2--2--2--|--2--2--2----2--2--2--2--|
--2----2----2--2--2--2--|--2----2----2--2--2--2--|--0--0--0----0--0--0--0--|
--0----0----0--0--0--0--|--0----0----0--0--0--0--|-------------------------|


  E  E  Q    E  E  E  E     Q    Q    E  E  E  E     E  E  Q    E  E  E  E   
--0--0--0----0--0--0--0--|------------------------|-------------------------|
--2--2--2----2--2--2--2--|--5----5----5--5--5--4--|--4--4--4----4--4--4--4--|
--2--2--2----2--2--2--2--|--4----4----4--4--4--4--|--4--4--4----4--4--4--4--|
--2--2--2----2--2--2--2--|--4----4----4--4--4--4--|--4--4--4----4--4--4--4--|
--0--0--0----0--0--0--0--|--2----2----2--2--2--2--|--2--2--2----2--2--2--2--|
-------------------------|------------------------|-------------------------|


  E  E  E  E  E  E  E  E     E  E  E  E  E  E  E  E     Q    E  E  E  E  E  E   
--0--0--0--0--0--0--0--0--|--0--0--0--0--0--0--0--0--|--0-------0-----0--------|
--0--0--0--0--0--0--0--0--|--0--0--0--0--0--0--0--0--|--0----0--0--0--0--0--0--|
--1--1--1--1--1--1--1--1--|--1--1--1--1--1--1--1--1--|--1----1--1--1--1--1--1--|
--2--2--2--2--2--2--2--2--|--2--2--2--2--2--2--2--2--|--2----2--2--2--2--2--2--|
--2--2--2--2--2--2--2--2--|--2--2--2--2--2--2--2--2--|--2----2--2--2--2--2--2--|
--0--0--0--0--0--0--0--0--|--0--0--0--0--0--0--0--0--|--0----0--0--0--0--0--0--|


  E  E  E  E  E  E  E  E     Q    E  E  E  E  E  E     E  E  E  E  E  E  E  E   
--------0-----0--------0--|--L-------0-----0--------|--------0-----0-----------|
--L--0--0--0--0--0--L--0--|--L----0--0--0--0--0--0--|--L--0--0--0--0--0--0--0--|
--L--1--1--1--1--2--L--1--|--L----1--1--1--x--x--1--|--L--1--1--1--1--x--x--1--|
--L--2--2--2--2--2--L--2--|--L----2--2--2--4--4--2--|--L--2--2--2--2--4--4--2--|
--L--2--2--2--2--2--L--2--|--L----2--2--2--2--2--2--|--L--2--2--2--2--2--2--2--|
--L--0--0--0--0--0--L--0--|--L----0--0--0--0--0--0--|--L--0--0--0--0--0--0--0--|


  Q    E  E  E  E  E  E     Q    E  E  E  E  E  E     Q    Q.     E  E  E   
----------0--------------|--0-------0-----0--------|-----------------------|
--L----0--0--0--0--0--0--|--0----0--0--0--0--0--0--|--4----4------4--2--2--|
--L----1--1--1--x--x--1--|--1----1--1--1--1--1--1--|--2----2------2--2--2--|
--L----2--2--2--4--4--2--|--2----2--2--2--2--2--2--|--4----4------4--4--4--|
--L----2--2--2--2--2--2--|--2----2--2--2--2--2--2--|--2----2------2--2--2--|
--L----0--0--0--0--0--0--|--0----0--0--0--0--0--0--|-----------------------|


  E  E  Q    E  E  E  E     E  E  Q    E  E  E  E     E  E  Q    E  E  E  E   
-------------------------|--4--4--4----4--4--4--4--|--4--4--4----4--4--4--4--|
--4--4--4----4--4--4-----|--5--5--5----5--5--5--5--|--5--5--5----5--5--5--5--|
--4--4--4----4--4--4--0--|--6--6--6----6--6--6--6--|--6--6--6----6--6--6--6--|
--4--4--4----4--4--4--0--|--6--6--6----6--6--6--6--|--6--6--6----6--6--6--6--|
--2--2--2----2--2--2-----|--4--4--4----4--4--4--4--|--4--4--4----4--4--4--4--|
-------------------------|-------------------------|-------------------------|


  E  E  Q    E  E  E  E     E  E  Q    E  E  E  E     E  E  Q    E  E  E  E   
-------------------------|-------------------------|--4--4--4----4--4--4--4--|
--3--3--3----3--3--3--2--|--2--2--2----2--2--2--2--|--5--5--5----5--5--5--5--|
--2--2--2----2--2--2--2--|--2--2--2----2--2--2--2--|--6--6--6----6--6--6--6--|
--4--4--4----4--4--4--2--|--2--2--2----2--2--2--2--|--6--6--6----6--6--6--6--|
--0--0--0----0--0--0--0--|--0--0--0----0--0--0--0--|--4--4--4----4--4--4--4--|
-------------------------|-------------------------|-------------------------|


  E  E  Q    E  E  E  E     Q    Q    E  E  E  E     E  E  Q    E  E  Q     
--4--4--4----4--4--4--4--|--2----2----2--2--2--2--|------------------------|
--5--5--5----5--5--5--5--|--3----3----3--3--3--3--|--4--4--4----4--4--4----|
--6--6--6----6--6--6--6--|--2----2----2--2--2--2--|--4--4--4----4--4--4----|
--6--6--6----6--6--6--6--|--0----0----0--0--0--0--|--4--4--4----4--4--4----|
--4--4--4----4--4--4--4--|------------------------|--2--2--2----2--2--2----|
-------------------------|------------------------|------------------------|


  Q    Q    E  E  E  E     Q    Q    E  E  E  E     E  E  Q    E  E  E  E   
--0----0----0--0--0--0--|--0----0----0--0--0--0--|--0--0--0----0--0--0--0--|
--0----0----0--0--0--0--|--0----0----0--0--0--0--|--2--2--2----2--2--2--2--|
--1----1----1--1--1--1--|--1----1----1--1--1--1--|--2--2--2----2--2--2--2--|
--2----2----2--2--2--2--|--2----2----2--2--2--2--|--2--2--2----2--2--2--2--|
--2----2----2--2--2--2--|--2----2----2--2--2--2--|--0--0--0----0--0--0--0--|
--0----0----0--0--0--0--|--0----0----0--0--0--0--|-------------------------|


  E  E  Q    E  E  E  E     Q    Q    E  E  E  E     E  E  Q    E  E  E  E   
--0--0--0----0--0--0--0--|------------------------|-------------------------|
--2--2--2----2--2--2--2--|--5----5----5--5--5--4--|--4--4--4----4--4--4--4--|
--2--2--2----2--2--2--2--|--4----4----4--4--4--4--|--4--4--4----4--4--4--4--|
--2--2--2----2--2--2--2--|--4----4----4--4--4--4--|--4--4--4----4--4--4--4--|
--0--0--0----0--0--0--0--|--2----2----2--2--2--2--|--2--2--2----2--2--2--2--|
-------------------------|------------------------|-------------------------|


  E  E  E  E  E  E  E  E     E  E  E  E  E  E  E  E     Q    Q    E  E  E  E   
--0--0--0--0--0--0--0--0--|--0--0--0--0--0--0--0--0--|--0----0----0--0--0--0--|
--0--0--0--0--0--0--0--0--|--0--0--0--0--0--0--0--0--|--0----0----0--0--0--0--|
--1--1--1--1--1--1--1--1--|--1--1--1--1--1--1--1--1--|--1----1----1--1--1--1--|
--2--2--2--2--2--2--2--2--|--2--2--2--2--2--2--2--2--|--2----2----2--2--2--2--|
--2--2--2--2--2--2--2--2--|--2--2--2--2--2--2--2--2--|--2----2----2--2--2--2--|
--0--0--0--0--0--0--0--0--|--0--0--0--0--0--0--0--0--|--0----0----0--0--0--0--|


  Q    Q    E  E  E  E     E  E  Q    E  E  E  E     E  E  Q    E  E  E  E   
--0----0----0--0--0--0--|--0--0--0----0--0--0--0--|--0--0--0----0--0--0--0--|
--0----0----0--0--0--0--|--2--2--2----2--2--2--2--|--2--2--2----2--2--2--2--|
--1----1----1--1--1--1--|--2--2--2----2--2--2--2--|--2--2--2----2--2--2--2--|
--2----2----2--2--2--2--|--2--2--2----2--2--2--2--|--2--2--2----2--2--2--2--|
--2----2----2--2--2--2--|--0--0--0----0--0--0--0--|--0--0--0----0--0--0--0--|
--0----0----0--0--0--0--|-------------------------|-------------------------|


  Q    Q    E  E  E  E     E  E  Q    E  E  E  E     E  E  E  E  E  E  E  E   
------------------------|-------------------------|--0--0--0--0--0--0--0--0--|
--5----5----5--5--5--4--|--4--4--4----4--4--4--4--|--0--0--0--0--0--0--0--0--|
--4----4----4--4--4--4--|--4--4--4----4--4--4--4--|--1--1--1--1--1--1--1--1--|
--4----4----4--4--4--4--|--4--4--4----4--4--4--4--|--2--2--2--2--2--2--2--2--|
--2----2----2--2--2--2--|--2--2--2----2--2--2--2--|--2--2--2--2--2--2--2--2--|
------------------------|-------------------------|--0--0--0--0--0--0--0--0--|


  E  E  E  E  E  E  E  E     E  E  E  E  E  E  E  E   
--0--0--0--0--0--0--0--0--|--------------------------|
--0--0--0--0--0--0--0--0--|--5-----5-----5-----5-----|
--1--1--1--1--1--1--1--1--|-----4-----4-----4-----4--|
--2--2--2--2--2--2--2--2--|--------------------------|
--2--2--2--2--2--2--2--2--|--------------------------|
--0--0--0--0--0--0--0--0--|--------------------------|


  E  E  E  E  E  E  E  E     E  E  E  E  E  E  E  E   
--------------------------|--------------------------|
--5-----5-----5-----5-----|--5-----5-----5-----5-----|
-----4-----4-----4-----4--|-----4-----4-----4-----4--|
--------------------------|--------------------------|
--------------------------|--------------------------|
--------------------------|--------------------------|


  E  E  E  E  E  E  E  E     E  E  E  E  E  E  E  E   
--------------------------|--------------------------|
--5-----5-----5-----5-----|--5-----5-----5-----5-----|
-----4-----4-----4-----4--|-----4-----4-----4-----4--|
--------------------------|--------------------------|
--------------------------|--------------------------|
--------------------------|--------------------------|


  E  E  E  E  E  E  E  E     E  E  E  E  E  E  E  E   
--------------------------|--------------------------|
--5-----5-----5-----5-----|--5-----5-----5-----5-----|
-----4-----4-----4-----4--|-----4-----4-----4-----4--|
--------------------------|--------------------------|
--------------------------|--------------------------|
--------------------------|--------------------------|


  E  E  E  E  E  E  E  E     Q    E  E  E  E  E  E     E  E  E  E  E  E  E  E   
--------------------------|--0-------0-----0--------|--------0-----0--------0--|
--5-----5-----5-----5-----|--0----0--0--0--0--0--0--|--L--0--0--0--0--0--L--0--|
-----4-----4-----4-----4--|--1----1--1--1--1--1--1--|--L--1--1--1--1--2--L--1--|
--------------------------|--2----2--2--2--2--2--2--|--L--2--2--2--2--2--L--2--|
--------------------------|--2----2--2--2--2--2--2--|--L--2--2--2--2--2--L--2--|
--------------------------|--0----0--0--0--0--0--0--|--L--0--0--0--0--0--L--0--|


  Q    E  E  E  E  E  E     E  E  E  E  E  E  E  E     Q    E  E  E  E  E  E   
--L-------0-----0--------|--------0-----0-----------|----------0--------------|
--L----0--0--0--0--0--0--|--L--0--0--0--0--0--0--0--|--L----0--0--0--0--0--0--|
--L----1--1--1--x--x--1--|--L--1--1--1--1--x--x--1--|--L----1--1--1--x--x--1--|
--L----2--2--2--4--4--2--|--L--2--2--2--2--4--4--2--|--L----2--2--2--4--4--2--|
--L----2--2--2--2--2--2--|--L--2--2--2--2--2--2--2--|--L----2--2--2--2--2--2--|
--L----0--0--0--0--0--0--|--L--0--0--0--0--0--0--0--|--L----0--0--0--0--0--0--|


  Q    E  E  E  E  E  E     Q    Q.     E  E  E     E  E  Q    E  E  E  E   
--0-------0-----0--------|-----------------------|-------------------------|
--0----0--0--0--0--0--0--|--4----4------4--2--2--|--4--4--4----4--4--4-----|
--1----1--1--1--1--1--1--|--2----2------2--2--2--|--4--4--4----4--4--4--0--|
--2----2--2--2--2--2--2--|--4----4------4--4--4--|--4--4--4----4--4--4--0--|
--2----2--2--2--2--2--2--|--2----2------2--2--2--|--2--2--2----2--2--2-----|
--0----0--0--0--0--0--0--|-----------------------|-------------------------|


  E  E  Q    E  E  E  E     E  E  Q    E  E  E  E     E  E  Q    E  E  E  E   
--4--4--4----4--4--4--4--|--4--4--4----4--4--4--4--|-------------------------|
--5--5--5----5--5--5--5--|--5--5--5----5--5--5--5--|--3--3--3----3--3--3--2--|
--6--6--6----6--6--6--6--|--6--6--6----6--6--6--6--|--2--2--2----2--2--2--2--|
--6--6--6----6--6--6--6--|--6--6--6----6--6--6--6--|--4--4--4----4--4--4--2--|
--4--4--4----4--4--4--4--|--4--4--4----4--4--4--4--|--0--0--0----0--0--0--0--|
-------------------------|-------------------------|-------------------------|


  E  E  Q    E  E  E  E     E  E  Q    E  E  E  E     E  E  Q    E  E  E  E   
-------------------------|--4--4--4----4--4--4--4--|--4--4--4----4--4--4--4--|
--2--2--2----2--2--2--2--|--5--5--5----5--5--5--5--|--5--5--5----5--5--5--5--|
--2--2--2----2--2--2--2--|--6--6--6----6--6--6--6--|--6--6--6----6--6--6--6--|
--2--2--2----2--2--2--2--|--6--6--6----6--6--6--6--|--6--6--6----6--6--6--6--|
--0--0--0----0--0--0--0--|--4--4--4----4--4--4--4--|--4--4--4----4--4--4--4--|
-------------------------|-------------------------|-------------------------|


  Q    Q    E  E  E  E     E  E  Q    E  E  Q       Q    Q    E  E  E  E   
--2----2----2--2--2--2--|------------------------|--0----0----0--0--0--0--|
--3----3----3--3--3--3--|--4--4--4----4--4--4----|--0----0----0--0--0--0--|
--2----2----2--2--2--2--|--4--4--4----4--4--4----|--1----1----1--1--1--1--|
--0----0----0--0--0--0--|--4--4--4----4--4--4----|--2----2----2--2--2--2--|
------------------------|--2--2--2----2--2--2----|--2----2----2--2--2--2--|
------------------------|------------------------|--0----0----0--0--0--0--|


  Q    Q    E  E  E  E     E  E  Q    E  E  E  E     E  E  Q    E  E  E  E   
--0----0----0--0--0--0--|--0--0--0----0--0--0--0--|--0--0--0----0--0--0--0--|
--0----0----0--0--0--0--|--2--2--2----2--2--2--2--|--2--2--2----2--2--2--2--|
--1----1----1--1--1--1--|--2--2--2----2--2--2--2--|--2--2--2----2--2--2--2--|
--2----2----2--2--2--2--|--2--2--2----2--2--2--2--|--2--2--2----2--2--2--2--|
--2----2----2--2--2--2--|--0--0--0----0--0--0--0--|--0--0--0----0--0--0--0--|
--0----0----0--0--0--0--|-------------------------|-------------------------|


  Q    Q    E  E  E  E     E  E  Q    E  E  E  E     E  E  E  E  E  E  E  E   
------------------------|-------------------------|--0--0--0--0--0--0--0--0--|
--5----5----5--5--5--4--|--4--4--4----4--4--4--4--|--0--0--0--0--0--0--0--0--|
--4----4----4--4--4--4--|--4--4--4----4--4--4--4--|--1--1--1--1--1--1--1--1--|
--4----4----4--4--4--4--|--4--4--4----4--4--4--4--|--2--2--2--2--2--2--2--2--|
--2----2----2--2--2--2--|--2--2--2----2--2--2--2--|--2--2--2--2--2--2--2--2--|
------------------------|-------------------------|--0--0--0--0--0--0--0--0--|


  E  E  E  E  E  E  E  E     Q    Q    E  E  E  E     Q    Q    E  E  E  E   
--0--0--0--0--0--0--0--0--|--0----0----0--0--0--0--|--0----0----0--0--0--0--|
--0--0--0--0--0--0--0--0--|--0----0----0--0--0--0--|--0----0----0--0--0--0--|
--1--1--1--1--1--1--1--1--|--1----1----1--1--1--1--|--1----1----1--1--1--1--|
--2--2--2--2--2--2--2--2--|--2----2----2--2--2--2--|--2----2----2--2--2--2--|
--2--2--2--2--2--2--2--2--|--2----2----2--2--2--2--|--2----2----2--2--2--2--|
--0--0--0--0--0--0--0--0--|--0----0----0--0--0--0--|--0----0----0--0--0--0--|


  E  E  Q    E  E  E  E     E  E  Q    E  E  E  E     Q    Q    E  E  E  E   
--0--0--0----0--0--0--0--|--0--0--0----0--0--0--0--|------------------------|
--2--2--2----2--2--2--2--|--2--2--2----2--2--2--2--|--5----5----5--5--5--4--|
--2--2--2----2--2--2--2--|--2--2--2----2--2--2--2--|--4----4----4--4--4--4--|
--2--2--2----2--2--2--2--|--2--2--2----2--2--2--2--|--4----4----4--4--4--4--|
--0--0--0----0--0--0--0--|--0--0--0----0--0--0--0--|--2----2----2--2--2--2--|
-------------------------|-------------------------|------------------------|


  E  E  Q    E  E  E  E     E  E  E  E  E  E  E  E     E  E  E  E  E  E  E  E   
-------------------------|--0--0--0--0--0--0--0--0--|--0--0--0--0--0--0--0--0--|
--4--4--4----4--4--4--4--|--0--0--0--0--0--0--0--0--|--0--0--0--0--0--0--0--0--|
--4--4--4----4--4--4--4--|--1--1--1--1--1--1--1--1--|--1--1--1--1--1--1--1--1--|
--4--4--4----4--4--4--4--|--2--2--2--2--2--2--2--2--|--2--2--2--2--2--2--2--2--|
--2--2--2----2--2--2--2--|--2--2--2--2--2--2--2--2--|--2--2--2--2--2--2--2--2--|
-------------------------|--0--0--0--0--0--0--0--0--|--0--0--0--0--0--0--0--0--|


  Q    Q    E  E  E  E     Q    Q    E  E  E  E     E  E  Q    E  E  E  E   
--0----0----0--0--0--0--|--0----0----0--0--0--0--|--0--0--0----0--0--0--0--|
--0----0----0--0--0--0--|--0----0----0--0--0--0--|--2--2--2----2--2--2--2--|
--1----1----1--1--1--1--|--1----1----1--1--1--1--|--2--2--2----2--2--2--2--|
--2----2----2--2--2--2--|--2----2----2--2--2--2--|--2--2--2----2--2--2--2--|
--2----2----2--2--2--2--|--2----2----2--2--2--2--|--0--0--0----0--0--0--0--|
--0----0----0--0--0--0--|--0----0----0--0--0--0--|-------------------------|


  E  E  Q    E  E  E  E     Q    Q    E  E  E  E     E  E  Q    E  E  E  E   
--0--0--0----0--0--0--0--|------------------------|-------------------------|
--2--2--2----2--2--2--2--|--5----5----5--5--5--4--|--4--4--4----4--4--4--4--|
--2--2--2----2--2--2--2--|--4----4----4--4--4--4--|--4--4--4----4--4--4--4--|
--2--2--2----2--2--2--2--|--4----4----4--4--4--4--|--4--4--4----4--4--4--4--|
--0--0--0----0--0--0--0--|--2----2----2--2--2--2--|--2--2--2----2--2--2--2--|
-------------------------|------------------------|-------------------------|


  E  E  E  E  E  E  E  E     E  E  E  E  E  E  E  E     Q    Q    E  E  E  E   
--0--0--0--0--0--0--0--0--|--0--0--0--0--0--0--0--0--|--0----0----0--0--0--0--|
--0--0--0--0--0--0--0--0--|--0--0--0--0--0--0--0--0--|--0----0----0--0--0--0--|
--1--1--1--1--1--1--1--1--|--1--1--1--1--1--1--1--1--|--1----1----1--1--1--1--|
--2--2--2--2--2--2--2--2--|--2--2--2--2--2--2--2--2--|--2----2----2--2--2--2--|
--2--2--2--2--2--2--2--2--|--2--2--2--2--2--2--2--2--|--2----2----2--2--2--2--|
--0--0--0--0--0--0--0--0--|--0--0--0--0--0--0--0--0--|--0----0----0--0--0--0--|


  Q    Q    E  E  E  E     E  E  Q    E  E  E  E     E  E  Q    E  E  E  E   
--0----0----0--0--0--0--|--0--0--0----0--0--0--0--|--0--0--0----0--0--0--0--|
--0----0----0--0--0--0--|--2--2--2----2--2--2--2--|--2--2--2----2--2--2--2--|
--1----1----1--1--1--1--|--2--2--2----2--2--2--2--|--2--2--2----2--2--2--2--|
--2----2----2--2--2--2--|--2--2--2----2--2--2--2--|--2--2--2----2--2--2--2--|
--2----2----2--2--2--2--|--0--0--0----0--0--0--0--|--0--0--0----0--0--0--0--|
--0----0----0--0--0--0--|-------------------------|-------------------------|


  Q    Q    E  E  E  E     E  E  Q    E  E  E  E     E  E  E  E  E  E  E  E   
------------------------|-------------------------|--0--0--0--0--0--0--0--0--|
--5----5----5--5--5--4--|--4--4--4----4--4--4--4--|--0--0--0--0--0--0--0--0--|
--4----4----4--4--4--4--|--4--4--4----4--4--4--4--|--1--1--1--1--1--1--1--1--|
--4----4----4--4--4--4--|--4--4--4----4--4--4--4--|--2--2--2--2--2--2--2--2--|
--2----2----2--2--2--2--|--2--2--2----2--2--2--2--|--2--2--2--2--2--2--2--2--|
------------------------|-------------------------|--0--0--0--0--0--0--0--0--|


  E  E  E  E  E  E  E  E    
--0--0--0--0--0--0--0--0--||
--0--0--0--0--0--0--0--0--||
--1--1--1--1--1--1--1--1--||
--2--2--2--2--2--2--2--2--||
--2--2--2--2--2--2--2--2--||
--0--0--0--0--0--0--0--0--||



============================================================================
============================================================================


Guitar 2 (Capo 1)



                                     H.           E  E     W                 
E||-------|-------|-------|-------|--0------------L--0--|--L----------------|
B||-------|-------|-------|-------|--0------------L--0--|--L----------------|
G||-------|-------|-------|-------|--2------------L--2--|--L----------------|
D||-------|-------|-------|-------|--2------------L--4--|--L----------------|
A||-------|-------|-------|-------|---------------------|-------------------|
E||-------|-------|-------|-------|---------------------|-------------------|


  H.           E  E     W                   H.           E  E   
--0------------L--0--|--L----------------|---------------------|
--0------------L--0--|--L----------------|--2------------L--4--|
--2------------L--2--|--L----------------|--4------------L--4--|
--2------------L--4--|--L----------------|--4------------L--4--|
---------------------|-------------------|---------------------|
---------------------|-------------------|---------------------|


  W                   H.           E  E     W                 
-------------------|---------------------|-------------------|
--L----------------|--2------------L--4--|--L----------------|
--L----------------|--4------------L--4--|--L----------------|
--L----------------|--4------------L--4--|--L----------------|
-------------------|---------------------|-------------------|
-------------------|---------------------|-------------------|


  W                                                                         
--0----------------|-------|-------|-------|-------|-------|-------|-------|
--0----------------|-------|-------|-------|-------|-------|-------|-------|
--1----------------|-------|-------|-------|-------|-------|-------|-------|
--2----------------|-------|-------|-------|-------|-------|-------|-------|
--2----------------|-------|-------|-------|-------|-------|-------|-------|
--0----------------|-------|-------|-------|-------|-------|-------|-------|


  W                   W                   W                   W                 
-------------------|-------------------|-------------------|-------------------|
--5----------------|--L----------------|--3----------------|--2----------------|
--6----------------|--L----------------|--2----------------|--2----------------|
--6----------------|--L----------------|--4----------------|--2----------------|
-------------------|-------------------|--0----------------|--0----------------|
-------------------|-------------------|-------------------|-------------------|


  W                   W                   W                   W                 
-------------------|-------------------|--2----------------|-------------------|
--5----------------|--L----------------|--3----------------|--4----------------|
--6----------------|--L----------------|--2----------------|--4----------------|
--6----------------|--L----------------|--0----------------|--4----------------|
-------------------|-------------------|-------------------|--2----------------|
-------------------|-------------------|-------------------|-------------------|


-------|-------|-------|-------|-------|-------|-------|-------|
-------|-------|-------|-------|-------|-------|-------|-------|
-------|-------|-------|-------|-------|-------|-------|-------|
-------|-------|-------|-------|-------|-------|-------|-------|
-------|-------|-------|-------|-------|-------|-------|-------|
-------|-------|-------|-------|-------|-------|-------|-------|


  W                   W                   W                   W                 
-------------------|-------------------|-------------------|-------------------|
--5----------------|--L----------------|--3----------------|--2----------------|
--6----------------|--L----------------|--2----------------|--2----------------|
--6----------------|--L----------------|--4----------------|--2----------------|
-------------------|-------------------|--0----------------|--0----------------|
-------------------|-------------------|-------------------|-------------------|


  W                   W                   W                   W                 
-------------------|-------------------|--2----------------|-------------------|
--5----------------|--L----------------|--3----------------|--4----------------|
--6----------------|--L----------------|--2----------------|--4----------------|
--6----------------|--L----------------|--0----------------|--4----------------|
-------------------|-------------------|-------------------|--2----------------|
-------------------|-------------------|-------------------|-------------------|


  E  E  E  E  E  E  E  E     E  E  E  E  E  E  E  E   
--------------------------|--------------------------|
--------------------------|--------------------------|
--------------------------|--------------------------|
--x--x--4--6--x--x--4--6--|--x--x--4--6--x--x--4--6--|
--------------------------|--------------------------|
--------------------------|--------------------------|


  E  E  E  E  E  E  E  E     E  E  E  E  E  E  E  E   
--------------------------|--------------------------|
--------------------------|--------------------------|
--------------------------|--------------------------|
--7--x--4--6--x--x--4--6--|--x--x--4--6--x--x--4--6--|
--------------------------|--------------------------|
--------------------------|--------------------------|


  E  E  E  E  E  E  E  E     E  E  E  E  E  E  E  E   
--------------------------|--------------------------|
--------------------------|--------------------------|
--------------------------|--------------------------|
--x--x--4--6--x--x--4--6--|--x--4--6--x--x--x--6--L--|
--------------------------|--------------------------|
--------------------------|--------------------------|


  E  E  E  E  E  E  E  E     Q    E  E  E  Q    E     Q    E  E  E  E  E  E   
--------------------------|------------------------|-------------------------|
--------------------------|------------------------|-------------------------|
--------------------------|----------------2----6--|--4----------------------|
--7--L--4--6--x--x--4--6--|--L----4--6--x--4----7--|--6----4--6--x--x--4--6--|
--------------------------|------------------------|-------------------------|
--------------------------|------------------------|-------------------------|


  E  E  E  E  E  E  E  E     E  E  E  E  E  E  E  E   
--------------------------|--------------------------|
--------------------------|--------------------------|
--------------------------|--------------------------|
--x--x--4--6--x--x--4--6--|--7--x--4--6--x--x--4--6--|
--------------------------|--------------------------|
--------------------------|--------------------------|


  E  E  E  E  E  E  E  E     E  E  E  E  E  E  E  E   
--------------------------|--------------------------|
--------------------------|--------------------------|
--------------------------|--------------------------|
--x--x--4--6--x--x--4--6--|--x--x--4--6--x--x--4--6--|
--------------------------|--------------------------|
--------------------------|--------------------------|


  E  E  E  E  E  E  E  E     E  E  E  E  E  E  E  E     Q    E  E  E  E  E  E   
--------------------------|--------------------------|-------------------------|
--------------------------|--------------------------|-------------------------|
--------------------------|--------------------------|-------------------------|
--x--4--6--x--x--x--6--L--|--7--L--4--6--x--x--4--6--|--L----4--6--x--x--4--6--|
--------------------------|--------------------------|-------------------------|
--------------------------|--------------------------|-------------------------|


                      H.           E   E       H        H                 
-----|-----|-------|----------------------|----------------------|-------|
-----|-----|-------|---------------7p--5--|--7g9-----------------|-------|
-----|-----|-------|----------------------|----------------------|-------|
-----|-----|-------|----------------------|----------------------|-------|
-----|-----|-------|----------------------|----------------------|-------|
-----|-----|-------|----------------------|----------------------|-------|


                  W                   W                   W                 
-------|-------|-------------------|-------------------|-------------------|
-------|-------|--5----------------|--L----------------|--3----------------|
-------|-------|--6----------------|--L----------------|--2----------------|
-------|-------|--6----------------|--L----------------|--4----------------|
-------|-------|-------------------|-------------------|--0----------------|
-------|-------|-------------------|-------------------|-------------------|


  W                   W                   W                   W                 
-------------------|-------------------|-------------------|--2----------------|
--2----------------|--5----------------|--L----------------|--3----------------|
--2----------------|--6----------------|--L----------------|--2----------------|
--2----------------|--6----------------|--L----------------|--0----------------|
--0----------------|-------------------|-------------------|-------------------|
-------------------|-------------------|-------------------|-------------------|


  W                   E  E  E  E  E  E  E  E     E  E  E  E  E  E  E  E   
-------------------|--------------------------|--------------------------|
--4----------------|--------------------------|--------------------------|
--4----------------|--------------------------|--------------------------|
--4----------------|--x--x--4--6--x--x--4--6--|--x--x--4--6--x--x--4--6--|
--2----------------|--------------------------|--------------------------|
-------------------|--------------------------|--------------------------|


  E  E  E  E  E  E  E  E     E  E  E  E  E  E  E  E   
--------------------------|--------------------------|
--------------------------|--------------------------|
--------------------------|--------------------------|
--7--x--4--6--x--x--4--6--|--x--x--4--6--x--x--4--6--|
--------------------------|--------------------------|
--------------------------|--------------------------|


  E  E  E  E  E  E  E  E     E  E  E  E  E  E  E  E   
--------------------------|--------------------------|
--------------------------|--------------------------|
--------------------------|--------------------------|
--x--x--4--6--x--x--4--6--|--x--4--6--x--x--x--6--L--|
--------------------------|--------------------------|
--------------------------|--------------------------|


  E  E  E  E  E  E  E  E     Q    E  E  E  Q    E     Q    E  E  E  E  E  E   
--------------------------|------------------------|-------------------------|
--------------------------|------------------------|-------------------------|
--------------------------|----------------2----6--|--4----------------------|
--7--L--4--6--x--x--4--6--|--L----4--6--x--4----7--|--6----4--6--x--x--4--6--|
--------------------------|------------------------|-------------------------|
--------------------------|------------------------|-------------------------|


  E  E  E  E  E  E  E  E     E  E  E  E  E  E  E  E   
--------------------------|--------------------------|
--------------------------|--------------------------|
--------------------------|--------------------------|
--x--x--4--6--x--x--4--6--|--7--x--4--6--x--x--4--6--|
--------------------------|--------------------------|
--------------------------|--------------------------|


  E  E  E  E  E  E  E  E     E  E  E  E  E  E  E  E   
--------------------------|--------------------------|
--------------------------|--------------------------|
--------------------------|--------------------------|
--x--x--4--6--x--x--4--6--|--x--x--4--6--x--x--4--6--|
--------------------------|--------------------------|
--------------------------|--------------------------|


  E  E  E  E  E  E  E  E     E  E  E  E  E  E  E  E     Q    E  E  E  E  E  E   
--------------------------|--------------------------|-------------------------|
--------------------------|--------------------------|-------------------------|
--------------------------|--------------------------|-------------------------|
--x--4--6--x--x--x--6--L--|--7--L--4--6--x--x--4--6--|--L----4--6--x--x--4--6--|
--------------------------|--------------------------|-------------------------|
--------------------------|--------------------------|-------------------------|


  E  E  E  E  E  E  E  E     E  E  E  E  E  E  E  E   
--------------------------|--------------------------|
--4--4--4--4--4--4--4--4--|--4--4--4--4--4--4--4--4--|
--4--4--4--4--4--4--4--4--|--4--4--4--4--4--4--4--4--|
--4--4--4--4--4--4--4--4--|--4--4--4--4--4--4--4--4--|
--2--2--2--2--2--2--2--2--|--2--2--2--2--2--2--2--2--|
--------------------------|--------------------------|


  E  E  E  E  E  E  E  E     E  E  E  E  E  E  E  E   
--------------------------|--------------------------|
--4--4--4--4--4--4--4--4--|--4--4--4--4--4--4--4--4--|
--4--4--4--4--4--4--4--4--|--4--4--4--4--4--4--4--4--|
--4--4--4--4--4--4--4--4--|--4--4--4--4--4--4--4--4--|
--2--2--2--2--2--2--2--2--|--2--2--2--2--2--2--2--2--|
--------------------------|--------------------------|


  E  E  E  E  E  E  E  E     E  E  E  E  E  E  E  E   
--------------------------|--------------------------|
--4--4--4--4--4--4--4--4--|--4--4--4--4--4--4--4--4--|
--4--4--4--4--4--4--4--4--|--4--4--4--4--4--4--4--4--|
--4--4--4--4--4--4--4--4--|--4--4--4--4--4--4--4--4--|
--2--2--2--2--2--2--2--2--|--2--2--2--2--2--2--2--2--|
--------------------------|--------------------------|


  E  E  E  E  E  E  E  E     E  E  E  E  E  E  E  E     W                 
--------------------------|--------------------------|--0----------------|
--4--4--4--4--4--4--4--4--|--4--4--4--4--4--4--4--4--|--0----------------|
--4--4--4--4--4--4--4--4--|--4--4--4--4--4--4--4--4--|--1----------------|
--4--4--4--4--4--4--4--4--|--4--4--4--4--4--4--4--4--|--2----------------|
--2--2--2--2--2--2--2--2--|--2--2--2--2--2--2--2--2--|--2----------------|
--------------------------|--------------------------|--0----------------|


                  H        E  E   E  E     W                                 
-------|-------|--------------5---9--7--|--L----------------|-------|-------|
-------|-------|--------------7--10--9--|--L----------------|-------|-------|
-------|-------|------------------------|-------------------|-------|-------|
-------|-------|------------------------|-------------------|-------|-------|
-------|-------|------------------------|-------------------|-------|-------|
-------|-------|------------------------|-------------------|-------|-------|


  H        E    E  E  E      H        H                         
-------------------------|---------------------|-------|-------|
-------------------9-----|---------------------|-------|-------|
--------------/11-----9--|---------------------|-------|-------|
-------------------------|--11-----------------|-------|-------|
-------------------------|---------------------|-------|-------|
-------------------------|---------------------|-------|-------|


  E    E  E  E    E  E  E  E      W                                         
-------5-----------------------|-------------------|-------|-------|-------|
-----5g7--5-------5------------|-------------------|-------|-------|-------|
----------------4g6--4--2------|-------------------|-------|-------|-------|
---------------------------4s--|--6----------------|-------|-------|-------|
-------------------------------|-------------------|-------|-------|-------|
-------------------------------|-------------------|-------|-------|-------|


  E  E  E  E  E  E  E  E     E  E  E  E  E  E  E  E   
--------------------------|--------------------------|
--------------------------|--------------------------|
--------------------------|--------------------------|
--x--x--4--6--x--x--4--6--|--x--x--4--6--x--x--4--6--|
--------------------------|--------------------------|
--------------------------|--------------------------|


  E  E  E  E  E  E  E  E     E  E  E  E  E  E  E  E   
--------------------------|--------------------------|
--------------------------|--------------------------|
--------------------------|--------------------------|
--7--x--4--6--x--x--4--6--|--x--x--4--6--x--x--4--6--|
--------------------------|--------------------------|
--------------------------|--------------------------|


  E  E  E  E  E  E  E  E     E  E  E  E  E  E  E  E   
--------------------------|--------------------------|
--------------------------|--------------------------|
--------------------------|--------------------------|
--x--x--4--6--x--x--4--6--|--x--4--6--x--x--x--6--L--|
--------------------------|--------------------------|
--------------------------|--------------------------|


  E  E  E  E  E  E  E  E     Q    E  E  E  Q    E     E  E  E  E  E  E  E  E   
--------------------------|------------------------|--------------------------|
--------------------------|------------------------|--------------------------|
--------------------------|----------------2----6--|--4-----------------------|
--7--L--4--6--x--x--4--6--|--L----4--6--x--4----7--|--6--x--4--6--x--x--4--6--|
--------------------------|------------------------|--------------------------|
--------------------------|------------------------|--------------------------|


  E  E  E  E  E  E  E  E     E  E  E  E  E  E  E  E   
--------------------------|--------------------------|
--------------------------|--------------------------|
--------------------------|--------------------------|
--x--x--4--6--x--x--4--6--|--7--x--4--6--x--x--4--6--|
--------------------------|--------------------------|
--------------------------|--------------------------|


  E  E  E  E  E  E  E  E     E  E  E  E  E  E  E  E   
--------------------------|--------------------------|
--------------------------|--------------------------|
--------------------------|--------------------------|
--x--x--4--6--x--x--4--6--|--x--x--4--6--x--x--4--6--|
--------------------------|--------------------------|
--------------------------|--------------------------|


  E  E  E  E  E  E  E  E     E  E  E  E  E  E  E  E     Q    E  E  E  Q    E   
--------------------------|--------------------------|------------------------|
--------------------------|--------------------------|------------------------|
--------------------------|--------------------------|----------------2----6--|
--x--4--6--x--x--x--6--L--|--7--L--4--6--x--x--4--6--|--L----4--6--x--4----7--|
--------------------------|--------------------------|------------------------|
--------------------------|--------------------------|------------------------|


  E  E  E  E  E  E  E  E     E  E  E  E  E  E  E  E   
--------------------------|--------------------------|
--------------------------|--------------------------|
--4-----------------------|--------------------------|
--6--x--4--6--x--x--4--6--|--x--x--4--6--x--x--4--6--|
--------------------------|--------------------------|
--------------------------|--------------------------|


  E  E  E  E  E  E  E  E     E  E  E  E  E  E  E  E   
--------------------------|--------------------------|
--------------------------|--------------------------|
--------------------------|--------------------------|
--7--x--4--6--x--x--4--6--|--x--x--4--6--x--x--4--6--|
--------------------------|--------------------------|
--------------------------|--------------------------|


  E  E  E  E  E  E  E  E     E  E  E  E  E  E  E  E   
--------------------------|--------------------------|
--------------------------|--------------------------|
--------------------------|--------------------------|
--x--x--4--6--x--x--4--6--|--x--4--6--x--x--x--6--L--|
--------------------------|--------------------------|
--------------------------|--------------------------|


  E  E  E  E  E  E  E  E     Q    E  E  E  Q    E     E  E  E  E  E  E  E  E   
--------------------------|------------------------|--------------------------|
--------------------------|------------------------|--------------------------|
--------------------------|----------------2----6--|--4-----------------------|
--7--L--4--6--x--x--4--6--|--L----4--6--x--4----7--|--6--x--4--6--x--x--4--6--|
--------------------------|------------------------|--------------------------|
--------------------------|------------------------|--------------------------|


  E  E  E  E  E  E  E  E     E  E  E  E  E  E  E  E   
--------------------------|--------------------------|
--------------------------|--------------------------|
--------------------------|--------------------------|
--x--x--4--6--x--x--4--6--|--7--x--4--6--x--x--4--6--|
--------------------------|--------------------------|
--------------------------|--------------------------|


  E  E  E  E  E  E  E  E     E  E  E  E  E  E  E  E   
--------------------------|--------------------------|
--------------------------|--------------------------|
--------------------------|--------------------------|
--x--x--4--6--x--x--4--6--|--x--x--4--6--x--x--4--6--|
--------------------------|--------------------------|
--------------------------|--------------------------|


  E  E  E  E  E  E  E  E     E  E  E  E  E  E  E  E   
--------------------------|--------------------------|
--------------------------|--------------------------|
--------------------------|--------------------------|
--x--4--6--x--x--x--6--L--|--7--L--4--6--x--x--4--6--|
--------------------------|--------------------------|
--------------------------|--------------------------|


  Q    E  E  E  S S E  E    
--------------------------||
--------------------------||
--------------------------||
--L----4--6--x--x-4-7--6--||
--------------------------||
--------------------------||




Duration Legend
---------------
W - whole
H - half
Q - quarter
E - 8th
S - 16th
T - 32nd
X - 64th
. - note dotted
|-n-|  - n-tuplets


Tablature Legend
----------------
L - tied note
x - dead note
g - grace note
(n) - ghost note
> - accentuded note
NH - natural harmonic
AH - artificial harmonic
TH - tapped harmonic
SH - semi harmonic
PH - pitch harmonic
h - hammer on
p - pull off
b - bend
br - bendRelease
pb - preBend
pbr - preBendRelease
brb - bendReleaseBend
\n/ - tremolo bar dip
\n - tremolo bar dive
-/n - tremolo bar Release up
/n\ - tremolo bar inverted dip
/n - tremolo bar return
-\n - tremolo bar Release down
S - shift slide
s - legato slide
/ -  slide into from below or out of upwards
\ -  slide into from above or out of downwards
~ - vibrato
W - wide vibrato
tr - trill
TP - tremolo picking
T - tapping
S - slap
P - pop
< - fade in
^ - brush up
v - brush down





Comments


Popular Don Henley tabs & chords
Dirty Laundry Bass Tabs
The Boys Of Summer 1 Bass Tabs
Annabel Chords
Come Rain Or Come Shine 1 Chords
End Of The Inmocence Chords
Heart Of The Matter Chords
I Can't Stand Still Chords
Dirty Laundry Tabs
Dirty Laundry 2 Tabs
I Cant Stand Still Ukulele


Song lyrics



↑ Back to top | Tablatures and chords are parodies/interpretations of the original songs. You may use it for private study, scholarship, research or language learning purposes only
© 2014 AZChords.com Contact us | Privacy policy | DMCA | Add/correct tabs | Request tabs | Top 50 tabs