» » »

Don Henley, The Last Worthless Evening Bass tabs (ver.1)

Artists:  A B C D E F G H I J K L M N O P Q R S T U V W X Y Z # 

The Last Worthless Evening Bass tabs (ver.1)

Don Henley Tabs
 Rating:
4/5 (4 votes)
The Last Worthless Evening lessons Tabs too difficult? Try these video lessons and learn fast
1
                -----------------------------------------------------------------------------
		                  
            
-----------------------------------------------------------------------------

Tuning: Standard (guitars CAPOed on 1st fret but bass is in standard tuning)

=============================================================================

      
Bass



G||-------|-------|-------|-------|-------|-------|-------|-------|-------|
D||-------|-------|-------|-------|-------|-------|-------|-------|-------|
A||-------|-------|-------|-------|-------|-------|-------|-------|-------|
E||-------|-------|-------|-------|-------|-------|-------|-------|-------|


                          E  E  E  E  E  E  E  E     E  E  E  E  E  E  E  E   
-------|-------|-------|--------------------------|--------------------------|
-------|-------|-------|--------------------------|--------------------------|
-------|-------|-------|--------------------------|--------------------------|
-------|-------|-------|--1--1--1--1--1--1--1--1--|--1--1--1--1--1--1--1--1--|


  E  E  E  E  E  E  E  E     E  E  E  E  E  E  E  E   
--------------------------|--------------------------|
--------------------------|--------------------------|
--------------------------|--------------------------|
--1--1--1--1--1--1--1--1--|--1--1--1--1--1--1--1--1--|


  E  E  E  E  E  E  E  E     E  E  E  E  E  E  E  E   
--------------------------|--------------------------|
--------------------------|--------------------------|
--------------------------|--------------------0--1--|
--1--1--1--1--1--1--1--1--|--1--1--1--1--1--1--------|


  E  E  E  E  E  E  E  E     E  E  E  E  E  E  E  E   
--------------------------|--------------------------|
--------------------------|--------------------------|
--3--3--3--3--3--3--3--3--|--3--3--3--3--3--3--3--0--|
--------------------------|--------------------------|


  E  E  E  E  E  E  E  E     E  E  E  E  E  E  E  E   
--------------------------|--------------------------|
--0--0--0--0--0--0--0--0--|--0--0--0--0--0--0--0-----|
--------------------------|-----------------------0--|
--------------------------|--------------------------|


  E  E  E  E  E  E  E  E     E  E  E  E  E  E  E  E   
--------------------------|--------------------------|
--------------------------|--------------------------|
--1--1--1--1--1--1--1--1--|--1--1--1--1--1--1--1--3--|
--------------------------|--------------------------|


  E  E  E  E  E  E  E  E     E  E  E  E  E  E  E  E   
--------------------------|--------------------------|
--0--0--0--0--0--0--0--0--|--0--0--0--0--0--0--0--0--|
--------------------------|--------------------------|
--------------------------|--------------------------|


  E  E  E  E  E  E  E  E     E  E  E  E  E  E  E  E   
--------------------------|--------------------------|
--1--1--1--1--1--1--1--1--|--------------------------|
--------------------------|--3--3--3--3--3--3--3--3--|
--------------------------|--------------------------|


  E  E  E  E  E  E  E  E     E  E  E  E  E  E  E  E   
--------------------------|--------------------------|
--------------------------|--------------------------|
--------------------------|--------------------------|
--1--1--1--1--1--1--1--1--|--1--1--1--1--1--1--1--1--|


  E  E  E  E  E  E  E  E     E  E  E  E  E  E  E  E   
--------------------------|--------------------------|
--------------------------|--------------------------|
--------------------------|--------------------------|
--1--1--1--1--1--1--1--1--|--1--1--1--1--1--1--1--1--|


  E  E  E  E  E  E  E  E     E  E  E  E  E  E  E  E    
--------------------------|---------------------------|
--------------------------|---------------------------|
--------------------------|-----------------------1s--|
--1--1--1--1--1--1--1--1--|--1--1--1--1--1--1--1------|


  E  E  E  E  E  E  E  E     E  E  E  E  E  E  E  E   
--------------------------|--------------------------|
--------------------------|--------------------------|
--3--3--3--3--3--3--3--3--|--3--3--3--3--3--3--3--0--|
--------------------------|--------------------------|


  E  E  E  E  E  E  E  E     E  E  E  E  E  E  E  E   
--------------------------|--------------------------|
--0--0--0--0--0--0--0--0--|--0--0--0--0--0--0--0-----|
--------------------------|-----------------------0--|
--------------------------|--------------------------|


  E  E  E  E  E  E  E  E     E  E  E  E  E  E  E  E   
--------------------------|--------------------------|
--------------------------|--------------------------|
--1--1--1--1--1--1--1--1--|--1--1--1--1--1--1--1--3--|
--------------------------|--------------------------|


  E  E  E  E  E  E  E  E     E  E  E  E  E  E  E  E   
--------------------------|--------------------------|
--0--0--0--0--0--0--0--0--|--0--0--0--0--0--0--0--0--|
--------------------------|--------------------------|
--------------------------|--------------------------|


  E  E  E  E  E  E  E  E     E  E  E  E  E  E  E  E   
--------------------------|--------------------------|
--1--1--1--1--1--1--1-----|--------------------------|
-----------------------1--|--3--3--3--3--3--3--3-----|
--------------------------|-----------------------1--|


  E  E  E  E  E  E  E  E      E  E  E  E  E  E  E  E   
---------------------------|--------------------------|
---------------------------|--------------------------|
---------------------------|--0--0--0--0--0--0--0--0--|
--1--1--1--1--1--1--1--3s--|--------------------------|


  E  E  E  E  E  E  E  E     E  E  E  E  E  E  E  E   
--------------------------|--------------------------|
--------------------------|--------------------------|
--1--1--1--1--1--1--1--1--|--1--1--1--1--1--1--1--1--|
--------------------------|--------------------------|


  E  E  E  E  E  E  E  E     E  E  E  E  E  E  E  E   
--------------------------|--------------------------|
--------------------------|--------------------------|
--3--3--3--3--3--3--3--3--|--3--3--3--3--3--3--3--3--|
--------------------------|--------------------------|


  E  E  E  E  E  E  E  E     E  E  E  E  E  E  E  E   
--------------------------|--------------------------|
--------------------------|-----------------------0--|
--------------------------|--------------------3-----|
--1--1--1--1--1--1--1--1--|--1--1--1--1--1--1--------|


  E  E  E  E  E  E  E  E      E  E  E  E  E  E  E  E   
---------------------------|--------------------------|
---------------------------|--------------------------|
---------------------------|--0--0--0--0--0--0--0--0--|
--1--1--1--1--1--1--1--3s--|--------------------------|


  E  E  E  E  E  E  E  E     E  E  E  E  E  E  E  E   
--------------------------|--------------------------|
--------------------------|--------------------------|
--1--1--1--1--1--1--1--1--|--1--1--1--1--1--1--1-----|
--------------------------|-----------------------1--|


  E  E  E  E  E  E  E  E     E  E  E  E  E  E  E   E   
--------------------------|---------------------------|
--------------------------|-----------------------/0--|
--------------------------|--1--1--1--1--1--1--1------|
--3--3--3--3--3--3--3--3--|---------------------------|


  E  E  E  E  E  E  E  E     E  E  E  E  E  E  E  E   
--------------------------|--------------------------|
--------------------------|--------------------------|
--3--3--3--3--3--3--3--3--|--3--3--3--3--3--3--3--3--|
--------------------------|--------------------------|


  E  E  E  E  E  E  E  E     E  E  E  E  E  E  E  E   
--------------------------|--------------------------|
--------------------------|--------------------------|
--------------------------|--------------------------|
--1--1--1--1--1--1--1--1--|--1--1--1--1--1--1--1--1--|


  E  E  E  E  E  E  E  E     E  E  E  E  E  E  E  E   
--------------------------|--------------------------|
--------------------------|--------------------------|
--------------------------|--------------------------|
--1--1--1--1--1--1--1--1--|--1--1--1--1--1--1--1--1--|


  E  E  E  E  E  E  E  E     E  E  E  E  E  E  E  E    
--------------------------|---------------------------|
--------------------------|---------------------------|
--------------------------|-----------------------1s--|
--1--1--1--1--1--1--1--1--|--1--1--1--1--1--1--1------|


  E  E  E  E  E  E  E  E     E  E  E  E  E  E  E  E   
--------------------------|--------------------------|
--------------------------|--------------------------|
--3--3--3--3--3--3--3--3--|--3--3--3--3--3--3--3--0--|
--------------------------|--------------------------|


  E  E  E  E  E  E  E  E     E  E  E  E  E  E  E  E   
--------------------------|--------------------------|
--0--0--0--0--0--0--0--0--|--0--0--0--0--0--0--0-----|
--------------------------|-----------------------0--|
--------------------------|--------------------------|


  E  E  E  E  E  E  E  E     E  E  E  E  E  E  E  E   
--------------------------|--------------------------|
--------------------------|--------------------------|
--1--1--1--1--1--1--1--1--|--1--1--1--1--1--1--1--3--|
--------------------------|--------------------------|


  E  E  E  E  E  E  E  E     E  E  E  E  E  E  E  E   
--------------------------|--------------------------|
--0--0--0--0--0--0--0--0--|--0--0--0--0--0--0--0--0--|
--------------------------|--------------------------|
--------------------------|--------------------------|


  E  E  E  E  E  E  E  E     E  E  E  E  E  E  E  E   
--------------------------|--------------------------|
--1--1--1--1--1--1--1-----|--------------------------|
-----------------------1--|--3--3--3--3--3--3--3-----|
--------------------------|-----------------------1--|


  E  E  E  E  E  E  E  E      E  E  E  E  E  E  E  E   
---------------------------|--------------------------|
---------------------------|--------------------------|
---------------------------|--0--0--0--0--0--0--0--0--|
--1--1--1--1--1--1--1--3s--|--------------------------|


  E  E  E  E  E  E  E  E     E  E  E  E  E  E  E  E   
--------------------------|--------------------------|
--------------------------|--------------------------|
--1--1--1--1--1--1--1--1--|--1--1--1--1--1--1--1--1--|
--------------------------|--------------------------|


  E  E  E  E  E  E  E  E     E  E  E  E  E  E  E  E   
--------------------------|--------------------------|
--------------------------|--------------------------|
--3--3--3--3--3--3--3--3--|--3--3--3--3--3--3--3--3--|
--------------------------|--------------------------|


  E  E  E  E  E  E  E  E     E  E  E  E  E  E  E  E   
--------------------------|--------------------------|
--------------------------|-----------------------0--|
--------------------------|--------------------3-----|
--1--1--1--1--1--1--1--1--|--1--1--1--1--1--1--------|


  E  E  E  E  E  E  E  E      E  E  E  E  E  E  E  E   
---------------------------|--------------------------|
---------------------------|--------------------------|
---------------------------|--0--0--0--0--0--0--0--0--|
--1--1--1--1--1--1--1--3s--|--------------------------|


  E  E  E  E  E  E  E  E     E  E  E  E  E  E  E  E   
--------------------------|--------------------------|
--------------------------|--------------------------|
--1--1--1--1--1--1--1--1--|--1--1--1--1--1--1--1-----|
--------------------------|-----------------------1--|


  E  E  E  E  E  E  E  E     E  E  E  E  E  E  E  E   
--------------------------|--------------------------|
--------------------------|--------------------------|
--------------------------|--1--1--1--1--1--1--1--1--|
--3--3--3--3--3--3--3--3--|--------------------------|


  E  E  E  E  E  E  E  E     E  E  E  E  E  E  Q      
--------------------------|--------------------------|
--------------------------|--------------------------|
--3--3--3--3--3--3--3--3--|--3--3--3--3--3--3--3\----|
--------------------------|--------------------------|


  E  E  E  E  E  E  E  E     E  E  E  E  E  E  E   E   
--------------------------|---------------------------|
--------------------------|---------------------------|
--1--1--1--1--1--1--1-----|--1--1--1--1--1--1--1\-----|
-----------------------4--|------------------------1--|


  E  E  E  E  E  E  E  E     E  E  E  E  E  E  E   E   
--------------------------|---------------------------|
--------------------------|-----------------------/0--|
--1--1--1--1--1--1--1--1--|--1--1--1--1--1--1--1------|
--------------------------|---------------------------|


  E  E  E  E  E  E  E  E     E  E  E  E  E  E  E  E   
--------------------------|--------------------------|
--------------------------|--------------------------|
--3--3--3--3--3--3--3--3--|--3--3--3--3--3--3--3--3--|
--------------------------|--------------------------|


  E  E  E  E  E  E  E  E     E  E  E  E  E  E  E  E    
--------------------------|---------------------------|
--------------------------|---------------------------|
--3--3--3--3--3--3--3--3--|--3--3--3--3--3--3--3--3\--|
--------------------------|---------------------------|


  E  E  E  E  E  E  E  E     E  E  E  E  E  E  E  E   
--------------------------|--------------------------|
--------------------------|--------------------------|
--------------------------|--------------------------|
--1--1--1--1--1--1--1--1--|--1--1--1--1--1--1--1--1--|


  E  E  E  E  E  E  E  E     E  E  E  E  E  E  E  E   
--------------------------|--------------------------|
--------------------------|--------------------------|
--------------------------|--------------------------|
--1--1--1--1--1--1--1--1--|--1--1--1--1--1--1--1--1--|


  E  E  E  E  E  E  E  E     E  E  E  E  E  E  E  E    
--------------------------|---------------------------|
--------------------------|---------------------------|
--------------------------|-----------------------1s--|
--1--1--1--1--1--1--1--1--|--1--1--1--1--1--1--1------|


  E  E  E  E  E  E  E  E     E  E  E  E  E  E  E  E   
--------------------------|--------------------------|
--------------------------|--------------------------|
--3--3--3--3--3--3--3--3--|--3--3--3--3--3--3--3--0--|
--------------------------|--------------------------|


  E  E  E  E  E  E  E  E     E  E  E  E  E  E  E  E   
--------------------------|--------------------------|
--0--0--0--0--0--0--0--0--|--0--0--0--0--0--0--0-----|
--------------------------|-----------------------0--|
--------------------------|--------------------------|


  E  E  E  E  E  E  E  E     E  E  E  E  E  E  E  E   
--------------------------|--------------------------|
--------------------------|--------------------------|
--1--1--1--1--1--1--1--1--|--1--1--1--1--1--1--1--3--|
--------------------------|--------------------------|


  E  E  E  E  E  E  E  E     E  E  E  E  E  E  E  E   
--------------------------|--------------------------|
--0--0--0--0--0--0--0--0--|--0--0--0--0--0--0--0--0--|
--------------------------|--------------------------|
--------------------------|--------------------------|


  E  E  E  E  E  E  E  E     E  E  E  E  E  E  E  E   
--------------------------|--------------------------|
--1--1--1--1--1--1--1-----|--------------------------|
-----------------------1--|--3--3--3--3--3--3--3-----|
--------------------------|-----------------------1--|


  E  E  E  E  E  E  E  E      E  E  E  E  E  E  E  E   
---------------------------|--------------------------|
---------------------------|--------------------------|
---------------------------|--0--0--0--0--0--0--0--0--|
--1--1--1--1--1--1--1--3s--|--------------------------|


  E  E  E  E  E  E  E  E     E  E  E  E  E  E  E   E   
--------------------------|---------------------------|
--------------------------|-----------------------/0--|
--1--1--1--1--1--1--1--1--|--1--1--1--1--1--1--1------|
--------------------------|---------------------------|


  E  E  E  E  E  E  E  E     E  E  E  E  E  E  E  E   
--------------------------|--------------------------|
--------------------------|--------------------------|
--3--3--3--3--3--3--3--3--|--3--3--3--3--3--3--3-----|
--------------------------|-----------------------1--|


  E  E  E  E  E  E  E  E     E   E  E  E   E  E  E  E   
--------------------------|----------------------------|
--------------------------|-----/3--3--3--/3--3--3--3--|
--------------------------|----------------------------|
--1--1--1--1--1--1--1--1--|--1-------------------------|


  E  E  E  E  E  E  E  E      E  E  E  E  E  E  E  E   
---------------------------|--------------------------|
---------------------------|--------------------------|
---------------------------|--0--0--0--0--0--0--0--0--|
--1--1--1--1--1--1--1--3s--|--------------------------|


  E  E  E  E  E  E  E  E     E  E  E  E  E  E  E  E   
--------------------------|--------------------------|
--------------------------|--------------------------|
--1--1--1--1--1--1--1--1--|--1--1--1--1--1--1--1-----|
--------------------------|-----------------------1--|


  E  E  E  E  E  E  E  E     E  E  E  E  E  E  E   E   
--------------------------|---------------------------|
--------------------------|-----------------------/0--|
--------------------------|--1--1--1--1--1--1--1------|
--3--3--3--3--3--3--3--3--|---------------------------|


  E  E  E  E  E  E  E  E     E  E  E  E  E  E  E  E   
--------------------------|--------------------------|
--------------------------|--------------------------|
--3--3--3--3--3--3--3--3--|--3--3--3--3--3--3--3--3--|
--------------------------|--------------------------|


  E  E  E  E  E  E  E  E      E  E  E  E  E  E  E  E   
---------------------------|--------------------------|
---------------------------|--------------------------|
---------------------------|--0--0--0--0--0--0--0--0--|
--1--1--1--1--1--1--1--3s--|--------------------------|


  E  E  E  E  E  E  E  E     E  E  E  E  E  E  E  E   
--------------------------|--------------------------|
--------------------------|--------------------------|
--1--1--1--1--1--1--1--1--|--1--1--1--1--1--1--1--1--|
--------------------------|--------------------------|


  E  E  E  E  E  E  E  E     E  E  E  E  E  E  E  E   
--------------------------|--------------------------|
--------------------------|--------------------------|
--3--3--3--3--3--3--3--3--|--3--3--3--3--3--3--3-----|
--------------------------|-----------------------1--|


  E  E  E  E  E  E  E  E     E   E  E  E   E  E  E  E   
--------------------------|----------------------------|
--------------------------|-----/3--3--3--/3--3--3--3--|
--------------------------|----------------------------|
--1--1--1--1--1--1--1--1--|--1-------------------------|


  E  E  E  E  E  E  E  E      E  E  E  E  E  E  E  E   
---------------------------|--------------------------|
---------------------------|--------------------------|
---------------------------|--0--0--0--0--0--0--0--0--|
--1--1--1--1--1--1--1--3s--|--------------------------|


  E  E  E  E  E  E  E  E     E  E  E  E  E  E  E  E   
--------------------------|--------------------------|
--------------------------|--------------------------|
--1--1--1--1--1--1--1--1--|--1--1--1--1--1--1--1-----|
--------------------------|-----------------------1--|


  E  E  E  E  E  E  E  E     E  E  E  E  E  E  E   E   
--------------------------|---------------------------|
--------------------------|-----------------------/0--|
--------------------------|--1--1--1--1--1--1--1------|
--3--3--3--3--3--3--3--3--|---------------------------|


  E  E  E  E  E  E  E  E     E  E  E  E  E  E  E  E    
--------------------------|--------------------------||
--------------------------|--------------------------||
--3--3--3--3--3--3--3--3--|--3--3--3--3--3--3--3--3--||
--------------------------|--------------------------||




Duration Legend
---------------
W - whole
H - half
Q - quarter
E - 8th
S - 16th
T - 32nd
X - 64th
. - note dotted
|-n-|  - n-tuplets


Tablature Legend
----------------
L - tied note
x - dead note
g - grace note
(n) - ghost note
> - accentuded note
NH - natural harmonic
AH - artificial harmonic
TH - tapped harmonic
SH - semi harmonic
PH - pitch harmonic
h - hammer on
p - pull off
b - bend
br - bendRelease
pb - preBend
pbr - preBendRelease
brb - bendReleaseBend
\n/ - tremolo bar dip
\n - tremolo bar dive
-/n - tremolo bar Release up
/n\ - tremolo bar inverted dip
/n - tremolo bar return
-\n - tremolo bar Release down
S - shift slide
s - legato slide
/ -  slide into from below or out of upwards
\ -  slide into from above or out of downwards
~ - vibrato
W - wide vibrato
tr - trill
TP - tremolo picking
T - tapping
S - slap
P - pop
< - fade in
^ - brush up
v - brush down
            
Submit corrections

comments powered by Disqus
↑ Back to top | Don Henley Bass for The Last Worthless Evening. Lyrics for acoustic guitar and electric guitar. 1 Tablatures and chords are parodies/interpretations of the original songs. You may use it for private study, scholarship, research or language learning purposes only