» » »

Donavon Frankenreiter, Call Me Papa Bass tabs (ver.1)

Artists:  A B C D E F G H I J K L M N O P Q R S T U V W X Y Z # 

Call Me Papa Bass tabs (ver.1)

Donavon Frankenreiter Tabs
 Rating:
4.2/5 (5 votes)
Call Me Papa lessons Tabs too difficult? Try these video lessons and learn fast
                -------------------------------------------------------------------------------
-------------------------------------------------------------------------------


Tuning: EADG

Bars every 8 beats

Intro
G|----54----20-|---------------------|
D|---5-----2---|---3---3---3---------|
A|-3-----0-----|-----------------0-2-|
E|-------------|-1---1---1---1-3-----|

Moon comes up...
G|----54----20-|---------------------|----54----20-|---------------------|
D|---5-----2---|---3---3---3---------|---5-----2---|---3---3-------------|
A|-3-----0-----|-----------------0-2-|-3-----0-----|---------6/8-8-7-5-3-|
E|-------------|-1---1---1---1-3-----|-------------|-1---1---------------|

You can call me papa...
G|-----------------|-------------------|-----------------|-----------------------|
D|---------2-22-22-|-----------------0-|---3---3---3---3-|-----------------------|
A|-3-33-33---------|-0-0-0-0-----------|-----------------|-3-33-33-2-------0-2-5-|
E|-----------------|---------3-3-3-3---|-1---1---1---1---|-----------3-3-3-------|

Moon comes up...
G|----54----20-|---------------------|----54----20-|---------------------|
D|---5-----2---|---3---3---3---------|---5-----2---|---3---3---3-3-2-0---|
A|-3-----0-----|-----------------0-2-|-3-----0-----|-------------------3-|
E|-------------|-1---1---1---1-3-----|-------------|-1---1---1-----------|

You can call me papa...
G|-----------------|-------------------|-----------------|-------------------------|
D|---------2-22-22-|-----------------0-|---3---3---3---3-|-------------------------|
A|-3-33-33---------|-0-0-0-0-----------|-----------------|-3-33-33-2---------0-2-5-|
E|-----------------|---------3-3-3-3---|-1---1---1---1---|-----------3-3-3-3-------|

[Solo]
G|----54----20-|---------------------|----54----20-|------------------------|
D|---5-----2---|---3---3---3---------|---5-----2---|---3---3----------------|
A|-3-----0-----|-----------------0-2-|-3-----0-----|---------6/8-8-78-7-5-3-|
E|-------------|-1---1---1---1-3-----|-------------|-1---1------------------|

G|-----------------------|-------------------|---------------------|---------------------------|
D|------------2-22-22-22-|-----------------0-|---3---3---3---------|---------------------------|
A|-3-33-33-33------------|-0-0-0-0-----------|---------------0-2-3-|-3-33-33-3-----------0-2-5-|
E|-----------------------|---------3-3-3-3---|-1---1---1---1-------|-----------3-3-3-3-3-------|

You can call me papa...
G|---------------------|-------------------|-----------------|---------------------------|
D|-----------2-22-22-2-|-----------------0-|---3---3---3---3-|---------------------------|
A|-3-33-33-3-----------|-0-0-0-0-----------|-----------------|-3-33-33-3-----------------|
E|---------------------|---------3-3-3-3---|-1---1---1---1---|-----------3-3-3-3-3-3-3-3-|

G|-------------------|
D|---3---3---3---3---|
A|-----------------3-|
E|-1---1---1---1-----|
            
Submit corrections

comments powered by Disqus
↑ Back to top | Donavon Frankenreiter Bass for Call Me Papa. Lyrics for acoustic guitar and electric guitar. Tablatures and chords are parodies/interpretations of the original songs. You may use it for private study, scholarship, research or language learning purposes only