>
 >
Staying Out For The Summer 1

Staying Out For The Summer 1 Guitar Tabs

Dodgy - Staying Out For The Summer 1 chords, tabs, tablatures, lyrics

Guitar lessons | Add/correct | Request | Top 50 tabs Artists:  A B C D E F G H I J K L M N O P Q R S T U V W X Y Z 0-9

Staying Out For The Summer 1 Guitar Tabs – Dodgy

CD, Sheet music, Poster

Do you like Staying Out For The Summer 1? Share with your friends now
ChordsTabsTabs v2
-----------------------------------------------------------------------------
                             Dodgy - Staying Out For The Summer
-----------------------------------------------------------------------------


Absolutely love this song so I thought I would tab it.

Tuning:eBGDAE

Intro:
e|--------------------------5--7~--------------|
B|--------------------------------8--5~--------|
G|--------2--0--------0--0-----------------4~--|
D|-----2-----------2--------------------5------|
A|--0-----------3------------------------------|
E|---------------------------------------------|

Verses:
e|-----------------------------------|
B|-----------------------------------|
G|--------2--0--------0--0--0--0--0--|
D|-----2-----------2-----------------|
A|--0-----------3--------------------|
E|-----------------------------------|

Chorus:
    G                       Dm
e|--3--3--3--3--3--3--3--3--5--5--5--5--5--5--5--5--|
B|--3--3--3--3--3--3--3--3--6--6--6--6--6--6--6--6--|
G|--4--4--4--4--4--4--4--4--7--7--7--7--7--7--7--7--|
D|--5--5--5--5--5--5--5--5--7--7--7--7--7--7--7--7--|
A|--5--5--5--5--5--5--5--5--5--5--5--5--5--5--5--5--|
E|--3--3--3--3--3--3--3--3--5--5--5--5--5--5--5--5--|

    G                       Dm          Am
e|--3--3--3--3--3--3--3--3--5--5--5--5--0--0--0--0--|
B|--3--3--3--3--3--3--3--3--6--6--6--6--1--1--1--1--|
G|--4--4--4--4--4--4--4--4--7--7--7--7--2--2--2--2--|
D|--5--5--5--5--5--5--5--5--7--7--7--7--2--2--2--2--|
A|--5--5--5--5--5--5--5--5--5--5--5--5--0--0--0--0--|
E|--3--3--3--3--3--3--3--3--5--5--5--5--0--0--0--0--|

(These chords are strummed each time once with an acoustic sounding effect)
    G Dm  G Dm  G Dm  G Dm
e|--3--1--3--1--3--1--3--1--|
B|--3--3--3--3--3--3--3--3--|
G|--0--2--0--2--0--2--0--2--|
D|--0--0--0--0--0--0--0--0--|
A|--2--0--2--0--2--0--2--0--|
E|--3--0--3--0--3--0--3--0--|

    G     Dm    G     Dm    G     Dm    G  
e|--3--3--1--1--3--3--1--1--3--3--1--1--3--3--3--3--3--|
B|--3--3--3--3--3--3--3--3--3--3--3--3--3--3--3--3--3--|
G|--0--0--2--2--0--0--2--2--0--0--2--2--0--0--0--0--0--|
D|--0--0--0--0--0--0--0--0--0--0--0--0--0--0--0--0--0--|
A|--2--2--0--0--2--2--0--0--2--2--0--0--2--2--2--2--2--|
E|--3--3--0--0--3--3--0--0--3--3--0--0--3--3--3--3--3--|

This bits played after the first chorus and before the solo:
e|--------5--7~--------------|
B|--8--5~--------8--5~-------|
G|-----------------------4~--|
D|--------------------5------|
A|---------------------------|
E|---------------------------|

Intro to solo:
(Played with distorted effect)
e|------------------------------------------------------------------|
B|--5--5-----5--5-----5--5-----7--8--5--5-----5--5-----5--5-----7b--|
G|--5--5-----5--5-----5--5-----7--8--5--5-----5--5-----5--5-----7b--|
D|--------7--------7--------7--------------7--------7--------7------|
A|------------------------------------------------------------------|
E|------------------------------------------------------------------|

e|------------------------------------------------------------------|
B|--5--5-----5--5-----5--5-----7--8--5--5-----5--5-----5--5-----7b--|
G|--5--5-----5--5-----5--5-----7--8--5--5-----5--5-----5--5-----7b--|
D|--------7--------7--------7--------------7--------7--------7------|
A|------------------------------------------------------------------|
E|------------------------------------------------------------------|

Solo:
(Played with phaser or whammy effect)
e|--------5--------5--------5------------5--3-------------------------------|
B|--8--5-----8--5-----8--5-----8b--8--5--------5--3--3b------------5--5-----|
G|-------------------------------------------------------5--2--5b--5--5-----|
D|-----------------------------------------------------------------------7--|
A|--------------------------------------------------------------------------|
E|--------------------------------------------------------------------------|

e|-----------------------------------------------------------|
B|--5--5-----5--5-----5--5-----5--5-----5--5-----5--5-----5--|
G|--5--5-----5--5-----5--5-----5--5-----5--5-----5--5-----5--|
D|--------7--------7--------7--------7--------7--------7-----|
A|-----------------------------------------------------------|
E|-----------------------------------------------------------|

************************************

| /   slide up
| \   slide down
| h   hammer-on
| p   pull-off
| ~   vibrato
| +   harmonic
| x   Mute note
| b   Bend
| pb  Pre-bend
| br  Bend release
| pbr Pre-bend release
| brb Bend release bend

************************************





Comments


Popular Dodgy tabs & chords
Grassman Chords
Jack The Lad Chords
United Kingdom Rest In Peace Chords
Youve Gotta Look Up Chords
In A Room Tabs
Prey For Drinking Tabs
Found You Ukulele
If Youre Thinking Of Me Ukulele
United Kingdom Rest In Peace Ukulele
Youve Gotta Look Up Ukulele


Song lyrics



↑ Back to top | Tablatures and chords are parodies/interpretations of the original songs. You may use it for private study, scholarship, research or language learning purposes only
© 2014 AZChords.com Contact us | Privacy policy | DMCA | Add/correct tabs | Request tabs | Top 50 tabs