>
 >
Some Days You Gotta Dance

Some Days You Gotta Dance Guitar Tabs

Dixie Chicks - Some Days You Gotta Dance chords, tabs, tablatures, lyrics

Guitar lessons | Add/correct | Request | Top 50 tabs Artists:  A B C D E F G H I J K L M N O P Q R S T U V W X Y Z 0-9

Some Days You Gotta Dance Guitar Tabs – Dixie Chicks

CD, Sheet music, Poster

Do you like Some Days You Gotta Dance? Share with your friends now
ChordsTabsUkulele
----------------------------------------------------------------------------
----------------------------------------------------------------------------
Hope you like it, it is not completely accurat, but it sounds well!


Tuning: Standard
Instrument: Telecaster B-Bender

Intro:
e|--0-0-0-|---------|-------------|---------|-------------|----------------|
B|--3b3-2-|-0---0---|-------------|---------|-------------|----------------|
G|--------|-6/7-6/7-|-------------|-4---4---|-------------|----------------|
D|--------|-5/6-5/6-|-2-2-2-2-2-2-|-5h6-5h6-|-2-2-2-2-2-2-|-4brp2----------|
A|--------|-6/7-6/7-|-2---4-2-4-2-|---------|-2---4-2-4-2-|-------4brp-----|
E|--------|---------|-------------|---------|-------------|------------3b--|

e|-------------|---------|-------------|-----------------|
B|-------------|---------|-------------|---0-------------|
G|-------------|-4---4---|-------------|-2h4-3-2---------|
D|-2-2-2-2-2-2-|-5h6-5h6-|-2-2-2-2-2-2-|---------4brp2---|
A|-2---4-2-4-2-|---------|-2---4-2-4-2-|---------------4-|
E|-------------|---------|-------------|-----------------|

Verse 1:
   It was about..  ..ready to go             And the boss..  ..to show
e|----------------------------------------|--------------------------------|
B|--Boogiestyle in E----------------------|--Boogie in E-------------------|
G|----------------------------------------|--------------------------------|
D|-2-2-2-2-2-2—etc.-----------------------|----------------------2-2-------|
A|-2---4-2-4-2-------------4br-2-4p2----2-|--------------------------5-4-2-|
E|-----------------------------------3b---|--------------------------------|

   He said you..   ..'cause your're.. ..to stay     ..jumping...to get away 
e|----------------------------------|--------------|-----------------------|
B|----------------------------------|-----0-x-2--0-|------4-4--------------|
G|-2-2-2-2-2-2----------------------|----h1-x-2-h1-|------4-4--------------|
D|-2---4-2-4-2—etc.-2-2-2-2-2-2-----|--------------|------4-4--------------|
A|------------------2---4-2-4-2—etc.|--------------|------2-2---------x-5b-|
E|----------------------------------|--------------|-----------------------|

Chorus 1:
   Some days you...dance   ..the chance         ..and dance.. 
e|-------------------------|--------------------|-------------|------------|
B|-------------------------|--------------------|-------------|-0---0------|
G|--Boogie in E----4---4---|--------------------|-Boogie in E-|-6/7-6/7----|
D|-----------------5h6-5h6-|--------------------|-------------|-5/6-5/6----|
A|-------------------------|-------4br-2-4p2----|-------------|-6/7-6/7----|
E|-------------------------|-----------------3b-|-------------|------------|

Verse 2:
   Well I.. ..glass of tea                    ..feel about me          ..mind
e|------------------------------------------|--------------------------|---|
B|------------------------------------------|--------------------------|---|
G|--Boogie in E-----------------------------|-Boogie in E--------------|-A-|
D|-----------------------------2-4br-2----2-|--------------6---4---2—0-|---|
A|-------------------------2-4---------4b---|------------/7--\5--\4—2--|---|
E|-------------------0-2/4------------------|--------------------------|---|

 ..pacin..n't come...to do  Chorus   Solo                         
e|-----------------|-----|--------|---------------|-----------------|------|
B|-5-4/5-----------|-0-0-|--------|---------------|-play twice-(end)|-end--|
G|-6-5/6---6/7-6/7-|-2-2-|--------|----------------|------------(1st)|-2nd-|
D|-5-4/5---5/6-5/6-|-1-1-|--------|-4br-2---------|-4b4b-2-4p2--(2)-|-time-|
A|---------6/7-6/7-|-2-2-|--------|------4br-2----|------------4b---|-4b-2-|
E|-----------------|-----|-x-x-3b-|------------3b-|-----------------|------|





                           
e|------------------------|-x-x-x-x-x-x-x-x---------|------------|---------|
B|------------------------|-7b7b7b7b7b7b7b7br5----5-|------------|---------|
G|---------------2------2-|--------------------7b---|--------3b2-|-------0-|
D|---------2-4p2-4br2-4-2-|-------------------------|---4--------|---------|
A|----0-3b----------------|-------------------------|-5b—4\2-----|-2br-0---|
E|-4b---------------------|-------------------------|------------|---------|

                     Chorus 3: accapella
                    ...you gotta dance         ..to tense
e|-0-0-0-|---------|---------------------------|---0-0-0-0-0-0-|
B|-3b3-2-|-0---0---|---------------------------|-5---3---2---0-|
G|-------|-6/7-6/7-|---------------------------|---------------|
D|-------|-5/6-5/6-|-----------------------2-/-|---------------|
A|-------|-6/7-6/7-|-------------------2-4-----|---------------|
E|-------|---------|-------------0-2/4---------|---------------|

 ..dance..                     ..dance           ..dance
e|---------------|---------------|---------------|-------|---------------|
B|---------------|---------------|---------------|---2-2-|-5-3-----------|
G|---------------|---------------|---------------|---2-2-|-----4-3-2-----|
D|-2-2-2-2-2-----|---------------|--4br2---------|---2-2-|-----------5-2-|
A|-2---4-2-4-etc.|-4br-4br2-4br2-|-------4br2----|---0-0-|---------------|
E|---------------|---------------|------------3b-|-------|---------------|

e|----------||
B|--0---0---||
G|--6/7-6/7-||
D|--5/6-5/6-||
A|--6/7-6/7-||
E|----------||



| /  slide up
| \  slide down
| b  bend
| br bendrelease
| h  hammer-on
| p  pull-off
| x  Mute note
============================================================================





Comments


Popular Dixie Chicks tabs & chords
A Home (corrected) Chords
Hello Mr. Heartache Chords
I Believe In Love Chords
Loving Arms Chords
Truth #2 Chords
Truth No 2 Chords
Cowboy Take Me Away Ukulele
Heartbreak Town Ukulele
Lullaby Ukulele
Silent House Ukulele


Song lyrics



↑ Back to top | Tablatures and chords are parodies/interpretations of the original songs. You may use it for private study, scholarship, research or language learning purposes only
© 2014 AZChords.com Contact us | Privacy policy | DMCA | Add/correct tabs | Request tabs | Top 50 tabs