» » »

Landslide ( Tabs (ver.1)

Artists:  A B C D E F G H I J K L M N O P Q R S T U V W X Y Z # 

Landslide ( Tabs (ver.1)

Dixie Chicks
Rating:
0/5 (0 votes)

Hard to play? Try these video lessons and learn fast.
                -------------------------------------------------------------------------------
-------------------------------------------------------------------------------

Tuning: E A D G B E    (Capo 7)

    (C)
e|---------------------------------------------------------------------------|
B|-----------1-----------------------------------1---------------------------|
G|---------------0-------0---------0-----------------0---------0--------0----|
D|-----2-------------2--------2-------------0-------------0---------0--------|
A|--3------------------------------------2-----------------------------------|
E|---------------------------------------------------------------------------|

e|---------------------------------------------------------------------------|
B|-------------1------------------------------1------------------------------|
G|-----------------0-------0------------------------0-------0------0---------|
D|--------2-------------2------2--------0---------------0------0-------------|
A|---0------------------------------2----------------------------------------|
E|---------------------------------------------------------------------------|

Repeat this throughout the entire song, except on the chorus:

Chorus:  C  G  Am  G

Lyrics:

I took my love and I took it down
I climbed a mountain and I turned around
And I saw my reflection in the snow-covered hills
Well, the landslide brought me down

Oh, mirror in the sky, what is love
Can the child within my heart rise above
Can I sail through the changing ocean tides
Can I handle the seasons of my life

Uh uh... uh uh, uh uh

Well, I've been afraid of changin'
Cause I've built my life around you
But time makes bolder
Children get older
And I'm getting older too
Well

(C) (G) (Am) (G)

Well, I've been afraid of changin'
Cause I've built my life around you
But time makes bolder
Children get older
And I'm getting older too

Well, I'm getting older too

So take this love and take it down
Yeah, and if you climb a mountain and you turn around
And if you see my reflection in the snow-covered hills
Well, the landslide brought it down

And if you see my reflection in the snow-covered hills
Well maybe...
Well maybe...
Well maybe...
The landslide'll bring you down


===============================================================================
            
Hard to play? Try these video lessons and learn fast. | Correct




comments powered by Disqus
↑ Back to top | Tablatures and chords are parodies/interpretations of the original songs. You may use it for private study, scholarship, research or language learning purposes only