» » »

Division Minuscula, La Ultima Y Me Voy Tabs (ver.1)

Artists:  A B C D E F G H I J K L M N O P Q R S T U V W X Y Z # 

La Ultima Y Me Voy Tabs (ver.1)

Division Minuscula Tabs
Rating:
5/5 (1 vote)
La Ultima Y Me Voy lessons Tabs too difficult? Try these video lessons and learn fast
                Pues esta es una de las mejores rolas de el nuevo cd bastante sencilla y con muy buen sonido.

x = pal mute
/ = slide

Intro X2
|-----------------------------------------------------------------------|
|-----------------------------------------------------------------------|
|-----------------------------------------------------------------------|
|-----------------------------------------------------------------------|
|- 9-11-11-11-11-11-9--9-11-11-11-11-11-9-------------------------------|
|-----------------------------------------------------------------------|

|-----------------------------------------------------------------------|
|-----------------------------------------------------------------------|
|-----------------------------------------------------------------------|
|----11-11-11-11-11-11----9-9-9-9-9-9-----------------------------------|
|-9--11-11-11-11-11-11----9-9-9-9-9-9-----------------------------------|
|----9--9--9--9--9--9-----7-7-7-7-7-7-----------------------------------|


Verso X3 (Mas de un mes tarde...)
|-----------------------------------------------------------------------|
|-----------------------------------------------------------------------|
|-9-9-9-9-9-9-9-9-9-9-9-9-9-9-9-9---------------------------------------|
|-9-9-9-9-9-9-9-9-9-9-9-9-9-9-9-9-1111111111111111--9-9-9-9-9-9-9-9-----|
|-7-7-7-7-7-7-7-7-7-7-7-7-7-7-7-7-1111111111111111--9-9-9-9-9-9-9-9-----|
|----------------------------------9-9-9-9-9-9-9-9--7-7-7-7-7-7-7-7-----|
  xxxxxxxxxxxxxxxxxxxxxxxxxxxxxx  xxxxxxxxxxxxxxxx  xxxxxxxxxxxxxxx

Pre-coro (Y ahora se....)
|------------------------------------------------------------------------|
|------------------------------------------------------------------------|
|-9-9-9-9-9-9-9-9-9-9-9-9-9-9-9-9-11-------------------------------------|
|-9-9-9-9-9-9-9-9-9-9-9-9-9-9-9-9-11-----------11------------------------|
|-7-7-7-7-7-7-7-7-7-7-7-7-7-7-7-7-9------------11------------------------|
|---------------------------------7-------------9------------------------|
  xxxxxxxxxxxxxxxxxxxxxxxxxxxxxxx

Coro X2

|-------------------------------------------------------------------------|
|-------------------------------------------------------------------------|
|-99-999-999-999----------------------------------------------------------|
|-99-999-999-999-1111-11111--11111--11111--77-777-777-777--99-999-999-999-|
|-77-777-777-777-1111-11111--11111--11111--77-777-777-777--99-999-999-999-|
|----------------9-9--9-9-9--9-9-9--9-9-9--55-555-555-555--77-777-777-777-|

Estribillo  (pa para pa pa pa pa pa....)
|-------------------------------------------------------------------------|
|-------------------------------------------------------------------------|
|-9999999999999999--------------------------------------------------------|
|-9999999999999999-1111111111111111-7777777777777777-9999999999999999-----|
|-7777777777777777-1111111111111111-7777777777777777-9999999999999999-----|
|------------------9999999999999999-5555555555555555-7777777777777777-----|
  xxxxxxxxxxxxxxxx xxxxxxxxxxxxxxxx xxxxxxxxxxxxxxxx xxxxxxxxxxxxxxxx

Verso X3 (Tu fiesta es igual que la de ayer.....)
Pre coro (Mi corazon.......)
Coro X2

Solo X2
|-------------------------------------------------------------------------|
|-9-----10-10-12--9-----10-10-12---9--9-10-9--------------9---------------|
|---9---------------9------------------------11-9-9/11--11--11-9-8--------|
|----11--------------11---------------------------------------------------|
|-------------------------------------------------------------------------|
|-------------------------------------------------------------------------|

NOTA: Al terminar la segunda vuelta del solo se termina en la tercera cuerda en el 
9 y empíesa a cantar pa para pa pa pa pa pa

Coro X4

Termina en:
|----|
|----|
|-9--|
|-9--|
|-7--|
|----|
            
Submit corrections

comments powered by Disqus
↑ Back to top | Division Minuscula Tabs for La Ultima Y Me Voy. Lyrics for acoustic guitar and electric guitar. Tablatures and chords are parodies/interpretations of the original songs. You may use it for private study, scholarship, research or language learning purposes only