» » »

Division Minuscula, La Ultima Y Me Voy Bass tabs (ver.1)

Artists:  A B C D E F G H I J K L M N O P Q R S T U V W X Y Z # 

La Ultima Y Me Voy Bass tabs (ver.1)

Division Minuscula Tabs
 Rating:
4/5 (4 votes)
La Ultima Y Me Voy lessons Tabs too difficult? Try these video lessons and learn fast
                Asi es como segun yo estaria en el bajo hehe

INTRO:(x2)
|------------------------------------------------------------------|
|------------------------------------------------------------------|
|------9-11-11-11-11-11-9--9-9-11-11-11-11-11-9--------------------|
|------------------------------------------------------------------|

|-----------------------------------------------------------------------|
|-----------------------------------------------------------------------|
|-9---------------------------------------------------------------------|
|----9--9--9--9--9--9-----7-7-7-7-7-7-----------------------------------|

VERSO:
(Mas de un mes, tarde...)
|--------------------------------------------------------------------|(x3)
|--------------------------------------------------------------------|
|-7-7-7-7-7-7-7-7-7-7-7-7-7-7-7-7------------------------------------|
|----------------------------------9-9-9-9-9-9-9-9--7-7-7-7-7-7-7-7--|
(Y ahora se...)
|------------------------------------------------------------------------|
|------------------------------------------------------------------------|
|-7-7-7-7-7-7-7-7-7-7-7-7-7-7-7-7----------------------------------------|
|---------------------------------7-------------9------------------------|

CORO:(x2)
(Y esta vez...)
|-------------------------------------------------------------------------|
|-------------------------------------------------------------------------|
|-77-777-777-777----------------------------------------------------------|
|----------------9-9--9-9-9--9-9-9--9-9-9--55-555-555-555--77-777-777-777-|

BREAK (pa para pa pa pa pa pa...)

|-------------------------------------------------------------------------|
|-------------------------------------------------------------------------|
|-7777777777777777--------------------------------------------------------|
|------------------9999999999999999-5555555555555555-7777777777777777-----|

Se repiten el verso y el coro

Segun yo la parte del solo seria en bajo las mismas notas que el break... Pero no estoy seguro

se repite el coro hasta que acaba
y termina en:

|----|
|----|
|-7--|
|----|
            
Submit corrections

comments powered by Disqus
↑ Back to top | Division Minuscula Bass for La Ultima Y Me Voy. Lyrics for acoustic guitar and electric guitar. Tablatures and chords are parodies/interpretations of the original songs. You may use it for private study, scholarship, research or language learning purposes only