» » »

Division, Betty Boop Tabs (ver.2)

Artists:  A B C D E F G H I J K L M N O P Q R S T U V W X Y Z # 

Betty Boop Tabs (ver.2)

Division Tabs
Rating:
0/5 (0 votes)
Betty Boop lessons Tabs too difficult? Try these video lessons and learn fast
                intro

- -----------------------------
- -----------------------------
- -----------------------------
- 9-9-9---9-9-9----------------   
- 7-7-6---7-7-6---7-7-7--7-7-7-
- ----------------5-5-4--5-5-4-  

- --------------0---0---------- 
- --------------0---0---------- 
- -----------------------------
- 6-6/8\6----------------------
- 4-4/6\4----6-6-7-7-----------
- -----------4-4-5-5-----------


- ----------------------------- x4
- -----------------------------
- -----------------------------
- 9 9 9 9 9 9 9 9 9 9 9 9 9 9 9\11
- 7 7 7 7 6 7 7 7 7 6 7 7 7 7 6\9
- -----------------------------

- -----------------------------
- -----------------------------
- -----------------------------
- -----------------9-----------
- 777777777777-999-7-----------
- 555555555555-777-------------   

tengo todo para comprovar......

- -----------------------------
- -----------------------------
- -----------------------------
- 9-----6----------------------
- 7--7--4--6--7----------------
- ---5-----4--5----------------

- -----------------------------
- -----------------------------
- -----------------------------
- -----------------------------
- 9-7-6------------------------
- 7-5-4------------------------

se que has de pensear en el......

- ----------------------------- x3
- -----------------------------
- -----------------------------
- 9----------------------------
- 7----9-7-6-------------------
- -----7-5-4-------------------

si ya no queda nada...........
- -----------------------------
- -----------------------------
- -----------------------------
- 9----------------------------
- 7----9-7-9-------------------
- -----7-5-7-------------------

tengo el mejor recuerdo en el.........

- ----------------------------- x4
- -----------------------------
- -----------------------------
- 9-----6----------------------
- 7--7--4--9-------------------
- ---5-----7-------------------
            

comments powered by Disqus
↑ Back to top | Division Tabs for Betty Boop. Lyrics for acoustic guitar and electric guitar. Tablatures and chords are parodies/interpretations of the original songs. You may use it for private study, scholarship, research or language learning purposes only