>
 >
Possessed 1

Possessed 1 Guitar Tabs

Distorted Epiphany - Possessed 1 chords, tabs, tablatures, lyrics

Guitar lessons | Add/correct | Request | Top 50 tabs Artists:  A B C D E F G H I J K L M N O P Q R S T U V W X Y Z 0-9

Possessed 1 Guitar Tabs – Distorted Epiphany

CD, Sheet music, Poster

Do you like Possessed 1? Share with your friends now
TabsTabs v2
NOTE - All Distorted Epiphany tabs are subject to change for a while... I should 
know... I wrote the songs. For the latest tabs, check 

Possessed

Music by Distorted Epiphany
Words by Goth


Tuning: Drop D, Down 1 whole step - C G C F A D

Key
  * - harmonic
  / - slide
  x - dampen
  ~ - hold note
  ^ - bend
  t - tremolo
  > - pickscrape
  h - hammer on
  p - pull off
  : - pinch harmonic


Riff A
(clean)                  (dist.)
D|----------------------|------------------------|
A|----------------------|------------------------|
F|----------------------|------------------------|
C|--0---2---2-3---3-2-0-|------------------------|
G|0---0---0-----0-------|--3-----3-----2-----2---|
C|----------------------|3---3-3---3-2---2-2---2-|


Riff B
(clean)                  (dist.)
D|----------------------|------------------------|
A|----------------------|------------------------|
F|----------------------|------------------------|
C|--0---2---2-3---3-2-0-|------------------------|
G|0---0---0-----0-------|3-3-3-3-5-3-2-2-2-2-3-2-|
C|----------------------|3-3-3-3-5-3-2-2-2-2-3-2-|
PM                       - - - - - - - - - - - -


Riff C
(dist.)
D|------------------------------------------------
A|------------------------------------------------
F|------------------------------------------------
C|------------------------------------------------
G|0-0-0-0-0-0-7-7-7-7-7-7-1-1-1-1-1-1-6-XXX-6-XXX-
C|0-0-0-0-0-0-7-7-7-7-7-7-1-1-1-1-1-1-6-XXX-6-XXX-

D|------------------------------------------------
A|------------------------------------------------
F|------------------------------------------------
C|------------------------------------------------
G|0-0-0-0-0-0-7-7-7-7-7-7-1-X-X-1-X-X-1-X-X-1-X-X-
C|0-0-0-0-0-0-7-7-7-7-7-7-1-X-X-1-X-X-1-X-X-1-X-X-

D|------------------------------------------------
A|------------------------------------------------
F|------------------------------------------------
C|------------------------------------------------
G|0-0-0-0-0-0-7-7-7-7-7-7-1-1-1-1-1-1-6-XXX-6-XXX-
C|0-0-0-0-0-0-7-7-7-7-7-7-1-1-1-1-1-1-6-XXX-6-XXX-

D|------------------------------------------------|
A|------------------------------------------------|
F|------------------------------------------------| play twice
C|------------------------------------------------|
G|0-0-0-0-0-0-7-7-7-7-7-7-6-6-6-6-6-6-1-1-1-1-1-1-|
C|0-0-0-0-0-0-7-7-7-7-7-7-6-6-6-6-6-6-1-1-1-1-1-1-|


Riff D
(dist.)
D|------------------------|
A|------------------------|
F|------------------------|
C|----------------------5~|
G|------3---2-----4-3---5~|
C|0-3-2-------4-3-------5~|


Riff E
(dist.)
D|------------------------------------|
A|------------------------------------|
F|------------------------------------|
C|------------------------------------|
G|0--1--0--1~~~~~~~0--3--2--3--5~~~~~~|
C|0--1--0--1~~~~~~~0--3--2--3--5~~~~~~|
PM                    -  -  -


Solo (with riff C underneath)
(dist.)
D|------------------------------------------------------
A|------------------------------------------------------
F|7-7-7-7-7-7-9-9-9-10-10-10-7-7-7-7-7-7-9-9-9-10-10-10-
C|------------------------------------------------------
G|------------------------------------------------------
C|------------------------------------------------------

D|---------------------------------------------------12-12-12-------
A|10-10-10-10-10-10-11-11-11-8-8-8-10-10-10-10-10-10----------8-8-8-
F|------------------------------------------------------------------
C|------------------------------------------------------------------
G|------------------------------------------------------------------
C|------------------------------------------------------------------

D|------------------------------------------------------------------
A|------------------------------------------------------------------
F|10-10-10-10-10-10-12-12-12-9-9-9-10-10-10-10-10-10-12-12-12-9-9-9-
C|------------------------------------------------------------------
G|------------------------------------------------------------------
C|------------------------------------------------------------------

D|------------------------------------------------|
A|------------------------------------------------|
F|7-7-7-7-7-7-5-5-5-5-5-5-------------------------| play this twice
C|------------------------8-8-8-8-8-8-7-7-7-7-7-7-|
G|------------------------------------------------|
C|------------------------------------------------|

Riff F
(dist.)
D|------------------------------------------------------
A|------------------------------------------------------
F|------------------------------------------------------
C|------------------------------------------------------
G|5-5-5-5-5-5-8-8-8-8-8-8-7-7-7-7-7-7-10-10-10-10-10-10-
C|5-5-5-5-5-5-8-8-8-8-8-8-7-7-7-7-7-7-10-10-10-10-10-10-

D|------------------------------------------------------
A|------------------------------------------------------
F|------------------------------------------------------
C|------------------------------------------------------
G|12-12-12-12-12-12-12-12-12-12-12-12-10-10-10-10-10-10-
C|12-12-12-12-12-12-12-12-12-12-12-12-10-10-10-10-10-10-

D|------------------------------------------------------
A|------------------------------------------------------
F|------------------------------------------------------
C|------------------------------------------------------
G|10-10-10-10-10-10-5-5-5-5-5-5-8-8-8-8-8-8-7-7-7-7-7-7-
C|10-10-10-10-10-10-5-5-5-5-5-5-8-8-8-8-8-8-7-7-7-7-7-7-

D|------------------------------------------------------
A|------------------------------------------------------
F|------------------------------------------------------
C|------------------------------------------------------
G|10-10-10-10-10-10-12-12-12-12-12-12-12-12-12-12-12-12-
C|10-10-10-10-10-10-12-12-12-12-12-12-12-12-12-12-12-12-

D|------------------------------------------------
A|------------------------------------------------
F|------------------------------------------------
C|------------------------------------------------
G|10-10-10-10-10-10-10-10-10-10-10-10-8-8-8-8-8-8-
C|10-10-10-10-10-10-10-10-10-10-10-10-8-8-8-8-8-8-

D|------------------------------------
A|------------------------------------
F|------------------------------------
C|------------------------------------
G|8-8-8-8-8-8-7-7-7-7-7-7-7-7-7-7-7-7-
C|8-8-8-8-8-8-7-7-7-7-7-7-7-7-7-7-7-7-

D|------------------------------------------------|
A|------------------------------------------------|
F|------------------------------------------------| play this 4 times
C|0-----------7~~~~~~~~~~~6~~~~~~~~~~/1~~~~~~~~~~~|
G|0-----------7~~~~~~~~~~~6~~~~~~~~~~/1~~~~~~~~~~~|
C|0-----------7~~~~~~~~~~~6~~~~~~~~~~/1~~~~~~~~~~~|

ORDER

Riff A x 4
Riff B x 4
Riff C
Riff D
Riff A x 2
Riff B x 4
Riff C
Riff E x 12
Diff C x 2
Solo
Riff F





Comments


Popular Distorted Epiphany tabs & chords
Ballad Of A Vampire Tabs
Ballad Of A Vampire 1 Tabs
Escape Tabs
Innocent Tabs
Innocent 1 Tabs
Misery 1 Tabs
My Mistake Tabs
My Mistake 1 Tabs
Saviour Tabs
Son Of Sam Tabs


Song lyrics



↑ Back to top | Tablatures and chords are parodies/interpretations of the original songs. You may use it for private study, scholarship, research or language learning purposes only
© 2014 AZChords.com Contact us | Privacy policy | DMCA | Add/correct tabs | Request tabs | Top 50 tabs