» » »

Distorted Epiphany, Misery Tabs (ver.1)

Artists:  A B C D E F G H I J K L M N O P Q R S T U V W X Y Z # 

Misery Tabs (ver.1)

Distorted Epiphany Tabs
 Rating:
4/5 (4 votes)
Misery lessons Tabs too difficult? Try these video lessons and learn fast
1
                
Music by Distorted Epiphany
Words by Goth


Tuning: Drop D, Down 1 whole step - C G C F A D

Key
  * - harmonic
  / - slide
  x - dampen
  ~ - hold note
  ^ - bend
  t - tremolo
  > - pickscr*pe
  h - hammer on
  p - pull off
  : - pinch harmonic



Riff A
D|----------------------------------------------------------------|
A|----------------------------------------------------------------|
F|----------------------------------------------------------------|
C|----------------------------------------------------------------|
G|110-0-0-0-0-0-0-110-0-0-0-0-0-0-110-0-0-0-0-0-0-3-3-3-3-3-3-3//0|
C|110-0-0-0-0-0-0-110-0-0-0-0-0-0-110-0-0-0-0-0-0-3-3-3-3-3-3-3//0|
                                                  * * * * * *

Riff B
D|----------------------------------------------------------------|
A|----------------------------------------------------------------|
F|----------------------------------------------------------------|
C|2~~~~~~~~~~~5~~~~~~~~~~~7~~~~~~~~~~~9~~~~~~~~12---12-14---14-14\|
G|2~2t--------5~5t--------7~7t--------9~9t-----12---12-14---14-14\|
C|2~2t--------5~5t--------7~7t--------9~9t-----12---12-14---14-14\|


Riff C
D|--------------------------------------------|
A|--------------------------------------------|
F|--------------------------------------------|
C|000-6/////0-000-6/////0-000-6/////0-000-----|
G|000-6/////0-000-6/////0-000-6/////0-000-----|
C|000-6/////0-000-6/////0-000-6/////0-000-6^^^|


Riff D
D|--------|
A|--------|
F|--------|
C|2~~~~~~~|
G|2~~~~~~~|
C|2~~~~~~~|


ORDER

Riff A x 4
Riff B x 3
Riff A x 4
Riff B x 3
Riff C x 6
Riff B x 6
Riff D x 1
            
Submit corrections

comments powered by Disqus
↑ Back to top | Distorted Epiphany Tabs for Misery. Lyrics for acoustic guitar and electric guitar. 1 Tablatures and chords are parodies/interpretations of the original songs. You may use it for private study, scholarship, research or language learning purposes only