» » »

Distorted Epiphany, Innocent Tabs (ver.2)

Artists:  A B C D E F G H I J K L M N O P Q R S T U V W X Y Z # 

Innocent Tabs (ver.2)

Distorted Epiphany Tabs
 Rating:
4/5 (4 votes)
Innocent lessons Tabs too difficult? Try these video lessons and learn fast
                NOTE - All Distorted Epiphany tabs are subject to change for a while... I should 
know... I wrote the songs. For the latest tabs, check 

Innocent

Music by Distorted Epiphany
Words by Goth


Tuning: Drop D, Down 1 whole step - C G C F A D
Key
   * - harmonic
   / - slide
   x - dampen
   ~ - hold note
   ^ - bend
   t - tremolo
   > - pickscr*pe
   h - hammer on
   p - pull off
   : - pinch harmonic

Riff A
D|--------------------------------------------------------|
A|--------------------------------------------------------|
F|--------------------------------------------------------|
C|--------------------------------------------------------|
G|4-3--0--1-0-1-4-3--0--1-0-1-4-3--0--1-0-1-4-3--0--1-----|
C|4-3--0--1-0-1-4-3--0--1-0-1-4-3--0--1-0-1-4-3--0--1-3^--|

Riff B
D|-------------------------------------------------------|
A|-------------------------------------------------------|
F|-------------------------------------------------------|
C|-------------------------------------------------------|
G|0--------0-0----------0--------0-0---------------------|
C|0--------0-0----------0--------0-0---------0-0-0-0-0-3^|
PM                                           - - - - - *

Riff C
D|--------------------------------------------------------|
A|--------------------------------------------------------|
F|--------------------------------------------------------|
C|--------------------------------------------------------|
G|4-3--0--1-0-1-4-3--0--1-0-1-4-3--0--1-0-1-4-3--0--1-----|
C|4-3--0--1-0-1-4-3--0--1-0-1-4-3--0--1-0-1-4-3--0--1-3^--|
PM- -  -  - - - - -  -  - - - - -  -  - - - - -  -  - *

Riff D
D|----------------------------------------------------------------
A|----------------------------------------------------------------
F|----------------------------------------------------------------
C|4~~~~~~~3~~~~~~~4~~~~~~~1~~~~~~~4~~~~~~~3~~~~~~~4~~~~~~~1~~~~~~~
G|4~~~~~~~3~~~~~~~4~~~~~~~1~~~~~~~4~~~~~~~3~~~~~~~4~~~~~~~1~~~~~~~
C|4~~~~~~~3~~~~~~~4~~~~~~~1~~~~~~~4~~~~~~~3~~~~~~~4~~~~~~~1~~~~~~~

D|----------------------------------------------------------------|
A|----------------------------------------------------------------|
F|----------------------------------------------------------------|
C|4--4--4-3--3--3-4--4--4-1--1--1---------------------------------|
G|4--4--4-3--3--3-4--4--4-1--1--1---------------------------------|
C|4--4--4-3--3--3-4--4--4-1--1--1-4t------3t------1t------0t----3^|
PM                                                        ------*

Riff E
D|----------------------------------------------------------------
A|----------------------------------------------------------------
F|----------------------------------------------------------------
C|----------------------------------------------------------------
G|----------------------------------------------------------------
D|3t------4t------7t------1t------3t------4t------7t------1t------

D|----------------------------------------------------------------|
A|----------------------------------------------------------------|
F|----------------------------------------------------------------|
C|----------------------------------------------------------------|
G|3t------4t------7t------1t------3t------4t------7t------9t------|
D|3t------4t------7t------1t------3t------4t------7t------9t------|

ORDER

Riff A
Riff B
Riff A x 2
Riff D
Riff A x 2
Riff C x 2
Riff D
Riff A x 2
Riff C x 2
Riff E
Riff C x 2
            
Submit corrections

comments powered by Disqus
↑ Back to top | Distorted Epiphany Tabs for Innocent. Lyrics for acoustic guitar and electric guitar. Tablatures and chords are parodies/interpretations of the original songs. You may use it for private study, scholarship, research or language learning purposes only