» » »

Dispatch, Railway Bass tabs (ver.1)

Artists:  A B C D E F G H I J K L M N O P Q R S T U V W X Y Z # 

Railway Bass tabs (ver.1)

Dispatch Tabs
 Rating:
4/5 (4 votes)
Railway lessons Tabs too difficult? Try these video lessons and learn fast
1
                This song kicks ass, I love it. Really fun to play and pretty easy once you get the hang of the patterns. I tabbed this out from the live version but it's pretty similiar to the one on Bang Bang. Here it is ! 

Main Progression: 

- Bb - Gmin - Cmin - F 
G---------------------- 
D---------------------- The whole song follows these chords. 
A-1------------3------- 
E-------3------------1- 

Opening Funk Riff: (* = Pause ) 

G------------------------------------------------------------------ 
D-------------------------3---------------3---------------3-------- 
A-------1-----1--*--3h5-5---5-3-----3h5-5---5-3-3-*-3h5-5---5-3---- 
E-1h3-3---3-1-------------------3-*-----------------------------1-* 

Repeat.. 

Riff 2: 
    Bb        Gmin        Cmin         F 
G---------------------------------------------- 
D---0-3-0---------------------5---------------- 
A-1---------------5-------3-6---6--------0-3-0- 
E-------------3-6---6------------------1------- 

Riff 3: 

G------------------------------------------------------------ 
D---0-3-----0-3--------------------5-------5----------------- 
A-1-----1-1---------5-------5--3-6---3-3-6------0-3-----0-3-- 
E---------------3-6---3-3-6-------------------1-----1-1------ 

Riff 4: Ska-Ish Breakdown 

G------------------------------------------------------------------ 
D---0-3---0-3---3----------------------5-----5---5----------------- 
A-1-----1-----1-------5-----5---5--3-6---3-6---3-----0-3---0-3---3- 
E-----------------3-6---3-6---3--------------------1-----1-----1--- 

Peace 
-Brady
            
Submit corrections

comments powered by Disqus
↑ Back to top | Dispatch Bass for Railway. Lyrics for acoustic guitar and electric guitar. 1 Tablatures and chords are parodies/interpretations of the original songs. You may use it for private study, scholarship, research or language learning purposes only