» » »

Dispatch, Out Loud Bass tabs (ver.1)

Artists:  A B C D E F G H I J K L M N O P Q R S T U V W X Y Z # 

Out Loud Bass tabs (ver.1)

Dispatch Tabs
 Rating:
4/5 (4 votes)
Out Loud lessons Tabs too difficult? Try these video lessons and learn fast
1
                (Live)
Dispatch: Out Loud Bass Live Version (The time when Dispatch covered Sublime’s What I 
is not that long but here it is...


Regular EADG Tuning

G--------------------------------------------|
D--------------------------------------------|
A------------------5-----------------------5-|
E-5----0-2-0-2-5-7--------5----0-2-0-2-5-7—--|

G------------------------------------|
D------------------------------------|
A -----------------5---5-7/9\--------|
E-5----0-2-0-2-5-7---5---------------|

G--------------------------------------------|
D--------------------------------------------|
A------------------5-----------------------5-|
E-5----0-2-0-2-5-7--------5----0-2-0-2-5-7—--|

G------------------------------------|
D------------------------------------|
A -----------------5---5-7/9\--------|
E-5----0-2-0-2-5-7---5---------------|

G--------------------------------------------|
D--------------------------------------------|
A------------------5-----------------------5-|
E-5----0-2-0-2-5-7--------5----0-2-0-2-5-7---|

G---------------------------------------------|
D---------------------------------------------|
A------------------5-------------------7-5----|
E-5----0-2-0-2-5-7--------5----0-2-0-2--------|

First Tab, So Please Rate It
            
Submit corrections

comments powered by Disqus
↑ Back to top | Dispatch Bass for Out Loud. Lyrics for acoustic guitar and electric guitar. 1 Tablatures and chords are parodies/interpretations of the original songs. You may use it for private study, scholarship, research or language learning purposes only